Song name
# A B C D E F G H I J K L M N O P Q R S T U V W X Y Z

Sons Of Butcher - Chicken Fever tab

Help us improve GuitareTab! Take a short survey!
Chicken Fever

Sons Of Butcher

Tuning: Drop D

I can promise 
you that this 
is the esiest 
song you've ever 
learned from sons of butcher. 
I made a goal to 
figure it out by 
myself becuz there 
were no tabs for this 
song ANYWHERE on the 
internet so i decided 
to post it myself. 
U might have to listen 
to the song for strumming patterns.

Oh yeah.... THIS SONG FUKKIN ROCKS \m/

Verse [2x]
E|-------------------------------------------------------------------------|
B|-------------------------------------------------------------------------|
G|-------------------------------------------------------------------------|
D|-0-00----0----0---------0-3-3-3-3-5-5-5-5--------------------------------|
A|-0-00----0----0-5--3----0-3-3-3-3-5-5-5-5--------------------------------|
D|-0-00-3b-0-3b-0-----5-3-0-3-3-3-3-5-5-5-5--------------------------------|

Then...

E|-------------------------------------------------------------------------|
B|-------------------------------------------------------------------------|
G|-------------------------------------------------------------------------|
D|-0-00----0----0---------0-------3-3-3-3-5-5-5-5--------------------------|
A|-0-00----0----0-5--3----0-[3x]--3-3-3-3-5-5-5-5--------------------------|
D|-0-00-3b-0-3b-0-----5-3-0-------3-3-3-3-5-5-5-5--------------------------|

Chorus [if you have trouble reading this listen to the pattern but the numbers are correct]
E|-------------------------------------------------------------------------|
B|-------------------------------------------------------------------------|
G|-7-7-7-7-5-5-5-5-------------------5-55-5/7-7-7-7-5-5-5-5----------------|
D|-7-7-7-7-5-5-5-5-0-5-5-5-5/3-3-3-3-5-55-5/7-7-7-7-5-5-5-5-5-5-5-5-3-3-3-3|
A|-5-5-5-5-3-3-3-3-0-5-5-5-5/3-3-3-3-3-33-3/5-5-5-5-3-3-3-3-5-5-5-5-3-3-3-3|
D|-----------------0h5-5-5-5/3-3-3-3------------------------5-5-5-5-3-3-3-3|

Outro [Drink, Drink]
E|-------------------------------------------------------------------------|
B|-------------------------------------------------------------------------|
G|-------------8888--------------------------------------------------------|
D|-0-0-0-0-0-0-xxxx-----------------------------------0--------------------|
A|-0-0-0-0-0-0-6666-----------------------------------0--------------------|
D|-0-0-0-0-0-0----------------------------------------0--------------------|

If you have questions message my user or email me @: mikeslayer93@hotmail.com

Related for Chicken Fever tab