Song name
# A B C D E F G H I J K L M N O P Q R S T U V W X Y Z

Sons Of Butcher - Come Fight Me tab

Main Riff
e|----------------------------------------------------------------|
B|----------------------------------------------------------------|
G|----------------------------------------------------------------|
D|-X-X--4--4-3--4-4-4-4--X--2-------------------------------------|
A|-X-X--4--4-3--4-4-4-4--X--2---x5--------------------------------|
E|-X-X--2--2-1--2-2-2-2--X--0-------------------------------------|


 Bridge
e|----------------------------------------------------------------|
B|----------------------------------------------------------------|
G|------------------6-6-6-6-6-6-6-6--8-8-8-8-8-8-8-8--------------|
D|-4-4-4-4-4-4-4-4--6-6-6-6-6-6-6-6--8-8-8-8-8-8-8-8--------------|
A|-4-4-4-4-4-4-4-4--4-4-4-4-4-4-4-4--6-6-6-6-6-6-6-6--------------|
E|-2-2-2-2-2-2-2-2------------------------------------------------|


e|----------------------------------------------------------------|
B|----------------------------------------------------------------|
G|----------------------------------------------------------------|
D|--4--4-3--4-4-4-4--X--2-----------------------------------------|
A|--4--4-3--4-4-4-4--X--2--x1-------------------------------------|
E|--2--2-1--2-2-2-2--X--0-----------------------------------------|
Tap to rate this tab
# A B C D E F G H I J K L M N O P Q R S T U V W X Y Z