Guitaretab - guitar tabs
Song name
# A B C D E F G H I J K L M N O P Q R S T U V W X Y Z

Sons Of Butcher - Pump Me Up tab

PUMP ME UP

Drop D


OPENING

-------------------------------------------|
--8-8-8-7-7-7-8-8-8-7-7-7-8-8-7-7---5------|
--7-7-7-7-7-7-7-7-7-7-7-7-7-7-7-7---5------|
--7-7-7-7-7-7-7-7-7-7-7-7-7-7-7-7---5------|
--5-5-5-5-5-5-5-5-5-5-5-5-5-5-5-5---3------|
-------------------------------------------|


VERSES

1.
2.

-------------------------------------------------------------------------|
-------------------------------------------------------------------------|
---------5-5-5-6-6-5-------------------55555555--------------------------|
-3333333-5-5-5-5-5-5-5555555-0-3333333-55555555-5555555---7--------------|
-3333333-3-3-3-------5555555-0-3333333-33333333-5555555---7--------------|
-3333333-------------5555555-0-3333333----------5555555---7--------------|


Chorus

REPEATS
[ Tab from: http://www.guitaretab.com/s/sons-of-butcher/190736.html ]
---------------------------------------------------------------------|
--8-8-8-7----8-8-8-7----8-8-7---6-6-6-5------------------------------|
--7-7-7-7----7-7-7-7----7-7-7---5-5-5-5------------------------------|
--7-7-7-7----7-7-7-7----7-7-7---5-5-5-5-----5---3-5-3-5-7-3-0--------|
--5-5-5-5----5-5-5-5----5-5-5---3-3-3-3-----5---3-5-3-5-7-3-0-------|
-----------0-0----------0-0--------0-----------00-5---3-5-3-5-7-3-0--|


BREAKDOWN

Your biceps, your triceps, your concepts mean shit.

-----------------------------------------------------------------------|
-----------------------------------------------------------------------|
----5--------------10--------------5---------------10------10----------|
----5--------------10--------------5---------------10------10----------|
----3--------------8---------------3---------------8-------8-----------|
-----------------------------------------------------------------------|
Related for Pump Me Up tab