Song name
# A B C D E F G H I J K L M N O P Q R S T U V W X Y Z

Sons Of Butcher - Fuck The Shit tab

Help us improve GuitareTab! Take a short survey!
Sons of Butcher - Fuck the Shit

tabbed by Matej Barac 

                                            PM PM PM       
     E  E  E  E   E  E  E   E     E   E  E  E  E  E  Q     
E||----------------------------|--------------------------|
B||----------------------------|--------------------------|
G||----------------------------|--------------------------|
D||--8-------------------------|--------------------------|
A||--6--------8--10--------11--|-----11--------------4----|
E||--------x--6---8-----x---9--|--x---9-----0--2--4-------|


                                         PM PM PM       
  E  E  E  E   E  E  E   E     E   E  E  E  E  E  Q     
----------------------------|--------------------------|
----------------------------|--------------------------|
----------------------------|--------------------------|
--8-------------------------|--------------------------|
--6--------8--10--------11--|-----11--------------4----|
--------x--6---8-----x---9--|--x---9-----0--2--4-------|


                                         PM PM PM       
  E  E  E  E   E  E  E   E     E   E  E  E  E  E  Q     
----------------------------|--------------------------|
----------------------------|--------------------------|
----------------------------|--------------------------|
--8-------------------------|--------------------------|
--6--------8--10--------11--|-----11--------------4----|
--------x--6---8-----x---9--|--x---9-----0--2--4-------|


                                         PM PM PM       
  E  E  E  E   E  E  E   E     E   E  E  E  E  E  Q     
----------------------------|--------------------------|
----------------------------|--------------------------|
----------------------------|--------------------------|
--8-------------------------|--------------------------|
--6--------8--10--------11--|-----11--------------4----|
--------x--6---8-----x---9--|--x---9-----0--2--4-------|


                                         PM PM PM       
  E  E  E  E   E  E  E   E     E   E  E  E  E  E  Q     
----------------------------|--------------------------|
----------------------------|--------------------------|
----------------------------|--------------------------|
--8-------------------------|--------------------------|
--6--------8--10--------11--|-----11--------------4----|
--------x--6---8-----x---9--|--x---9-----0--2--4-------|


                                         PM PM PM       
  E  E  E  E   E  E  E   E     E   E  E  E  E  E  Q     
----------------------------|--------------------------|
----------------------------|--------------------------|
----------------------------|--------------------------|
--8-------------------------|--------------------------|
--6--------8--10--------11--|-----11--------------4----|
--------x--6---8-----x---9--|--x---9-----0--2--4-------|


  Q    E   E   E   E   E   E      E   E   E   E   E  E  E  E   
------------------------------|-------------------------------|
------------------------------|-------------------------------|
------------------------------|-------------------------------|
--8----8----------------------|-------------------------------|
--6----6--10--10--10--10--11--|---L--11--11--11--11--4--4--4--|
-----------8---8---8---8---9--|---L---9---9---9---9--2--2--2--|


  Q    E   E   E   E   E   E      E   E   E   E   E  E  E  E   
------------------------------|-------------------------------|
------------------------------|-------------------------------|
------------------------------|-------------------------------|
--8----8----------------------|-------------------------------|
--6----6--10--10--10--10--11--|---L--11--11--11--11--8--8--8--|
-----------8---8---8---8---9--|---L---9---9---9---9--6--6--6--|


  Q    E   E   E   E   E   E      E   E   E   E   E  E  E  E   
------------------------------|-------------------------------|
------------------------------|-------------------------------|
------------------------------|-------------------------------|
--8----8----------------------|-------------------------------|
--6----6--10--10--10--10--11--|---L--11--11--11--11--4--4--4--|
-----------8---8---8---8---9--|---L---9---9---9---9--2--2--2--|


  Q    E   E   E   E   E   E      E   E   E   E   E  E  E  E   
------------------------------|-------------------------------|
------------------------------|-------------------------------|
------------------------------|-------------------------------|
--8----8----------------------|-------------------------------|
--6----6--10--10--10--10--11--|---L--11--11--11--11--8--8--8--|
-----------8---8---8---8---9--|---L---9---9---9---9--6--6--6--|


                                         PM PM PM       
  E  E  E  E   E  E  E   E     E   E  E  E  E  E  Q     
----------------------------|--------------------------|
----------------------------|--------------------------|
----------------------------|--------------------------|
--8-------------------------|--------------------------|
--6--------8--10--------11--|-----11--------------4----|
--------x--6---8-----x---9--|--x---9-----0--2--4-------|


                                         PM PM PM       
  E  E  E  E   E  E  E   E     E   E  E  E  E  E  Q     
----------------------------|--------------------------|
----------------------------|--------------------------|
----------------------------|--------------------------|
--8-------------------------|--------------------------|
--6--------8--10--------11--|-----11--------------4----|
--------x--6---8-----x---9--|--x---9-----0--2--4-------|


                                         PM PM PM       
  E  E  E  E   E  E  E   E     E   E  E  E  E  E  Q     
----------------------------|--------------------------|
----------------------------|--------------------------|
----------------------------|--------------------------|
--8-------------------------|--------------------------|
--6--------8--10--------11--|-----11--------------4----|
--------x--6---8-----x---9--|--x---9-----0--2--4-------|


                                         PM PM PM       
  E  E  E  E   E  E  E   E     E   E  E  E  E  E  Q     
----------------------------|--------------------------|
----------------------------|--------------------------|
----------------------------|--------------------------|
--8-------------------------|--------------------------|
--6--------8--10--------11--|-----11--------------4----|
--------x--6---8-----x---9--|--x---9-----0--2--4-------|


  E  S Q    E  S Q    E     S Q    E  S Q    Q      
-------------------------|------------------------||
-------------------------|------------------------||
-------------------------|------------------------||
--8---------8---------8--|---------8---------8----||
--6---------6---------6--|---------6---------6----||
-------------------------|------------------------||
Related for Fuck The Shit tab