Song name
# A B C D E F G H I J K L M N O P Q R S T U V W X Y Z

Sons Of Butcher - I Need An Arm tab

I NEED AN ARM
As recorded by Sons Of Butcher
(From the 2007 Album MEATLANTIS)

Transcribed by Whoabot
	

Words and Music by Sons Of Butcher
Arranged by Sons Of Butcher

Gtr I (D A D G B E) - 'Untitled'
Gtr II (D A D G B E) - 'Untitled'

 Intro
  Q=138(8=s8)
  N.C.       D5A5  Bm7                     D5A5  Bm7             A5
 4/4
  Gtr I
             |--3---|                      |--3---|
  W          E  E   E   E  E  E  E E  E    E  E   E   E  E  E  E Q
|----------|-----------------------------|--------------------------|
|----------|-----------(7)---(7)---------|-----------(7)---(7)------|
|----------|------------7-----7----------|------------7-----7-------|
|----------|------------7-----7----------|------------7-----7-------|
|----------|-0h(7)h(9)-----9-----9---(x)-|-0h(7)h(9)-----9-----9p7--|
|----------|-0h=7h==9------9-----9---(x)-|-0h=7h==9------9-----9p7--|


  D5A5  Bm7                     D5A5  Bm7             A5
  |--3---|                      |--3---|
  E  E   E   E  E  E  E E  E    E  E   E   E  E  E  E Q
|-----------------------------|---------------------------||
|-----------(7)---(7)---------|-----------(7)---(7)-------||
|------------7-----7----------|------------7-----7--------||
|------------7-----7----------|------------7-----7--------||
|-0h(7)h(9)-----9-----9---(x)-|-0h(7)h(9)-----9-----9p7---||
|-0h=7h==9------9-----9---(x)-|-0h=7h==9------9-----9p7---||


   Verse
    D5A5  Bm7                     D5A5  Bm7             A5
    |--3---|                      |--3---|
    E  E   E   E  E  E  E E  E    E  E   E   E  E  E  E Q
||------------------------------|--------------------------|
||o-----------(7)---(7)---------|-----------(7)---(7)------|
||-------------7-----7----------|------------7-----7-------|
||-------------7-----7----------|------------7-----7-------|
||o-0h(7)h(9)-----9-----9---(x)-|-0h(7)h(9)-----9-----9p7--|
||--0h=7h==9------9-----9---(x)-|-0h=7h==9------9-----9p7--|


  D5A5  Bm7                     D5A5  Bm7             A5
  |--3---|                      |--3---|
  E  E   E   E  E  E  E E  E    E  E   E   E  E  E  E Q    3x
|-----------------------------|----------------------------||
|-----------(7)---(7)---------|-----------(7)---(7)-------o||
|------------7-----7----------|------------7-----7---------||
|------------7-----7----------|------------7-----7---------||
|-0h(7)h(9)-----9-----9---(x)-|-0h(7)h(9)-----9-----9p7---o||
|-0h=7h==9------9-----9---(x)-|-0h=7h==9------9-----9p7----||


   horus
    G5                D5
     W                W
||------------------|--------------|
||o-----------------|--------------|
||--(7)-------------|--------------|
||---5--------------|-0------------|
||o--5--------------|-0------------|
||---5--------------|-0------------|
|
|   Gtr II
|    E  E Q.   E Q    Q  E Q  E Q
||------------------|--------------|
||o-----------------|--------------|
||------------------|--------------|
||---5--5-5------5--|----0------0--|
||o--5--5-5----5-5--|-0--0-0--0-0--|
||---5--5-5----5-5--|-0--0-0--0-0--|


  E5                   Bm7                      D5
                                    |--3--|
  H.          a    E   E   +E  E Q  E  E  E  E  E
|------------------------|--------------------------||
|------------------------|------------(7)---(7)----o||
|------------------------|-------------7-----7------||
|-2--------------------9-|-(9)-9-9-----7-----7------||
|-2--------------------9-|-(9)-9-9--9-----9-----0--o||
|-2----------(2)s(17)\-9-|-(9)-9-9--9-----9-----0---||
|
|                                   |--3--|
| Q   Q.   E  a    E   E   +E  E Q  E  E  E  E  E
|------------------------|--------------------------||
|------------------------|------------(7)---(7)----o||
|------------------------|-------------7-----7------||
|-2---2----------------9-|-(9)-9-9-----7-----7------||
|-2---2----2-----------9-|-(9)-9-9--9-----9-----0--o||
|-2---2----2-(2)s(17)\-9-|-(9)-9-9--9-----9-----0---||


 Bridge
  N.C.
  |-3-| |-3-| |-3-| |-3-|   |-3-| |-3-| |-3-| |-3-|
  E E E E E E E E E E E E   E E E E E E E E E E E E
|-------------------------|-------------------------|
|-------------------------|-------------------------|
|-------------------------|-------------------------|
|-------------------------|-------------------------|
|-5-5-5-5-5-5-5-5-5-5-5-5-|-3-3-3-3-3-3-3-3-3-3-3-3S|
|-------------------------|-------------------------|


                            D5F5D5C5    B5
  |-3-| |-3-| |-3-| |-3-|   |-3-|  |-3--|
  E E E E E E E E E E E E   Q Q Q  Q  Q Q
|-------------------------|-----------------|
|-------------------------|-----------------|
|-------------------------|-----------------|
|-------------------------|-----------------|
|-7-7-7-7-7-7-7-7-7-7-7-7-|-0-3-0-10-10-9---|
|-------------------------|-0-3-0-10-10-9---|


  N.C.
  |-3-| |-3-| |-3-| |-3-|   |-3-| |-3-| |-3-| |-3-|
  E E E E E E E E E E E E   E E E E E E E E E E E E
|-------------------------|-------------------------|
|-------------------------|-------------------------|
|-------------------------|-------------------------|
|-------------------------|-------------------------|
|-5-5-5-5-5-5-5-5-5-5-5-5-|-3-3-3-3-3-3-3-3-3-3-3-3S|
|-------------------------|-------------------------|


                            D5G5D5C5    B5
  |-3-| |-3-| |-3-| |-3-|   |-3-|  |-3--|
  E E E E E E E E E E E E   Q Q Q  Q  Q Q
|-------------------------|-----------------|
|-------------------------|-----------------|
|-------------------------|-----------------|
|-------------------------|-----------------|
|-7-7-7-7-7-7-7-7-7-7-7-7-|-0-5-0-10-10-9---|
|-------------------------|-0-5-0-10-10-9---|


  D5                        C5
  |-3-| |-3-| |-3-| |-3-|   |-3-| |-3-| |-3-| |-3-|
  E E E E E E E E E E E E   E E E E E E E E E E E E
|-------------------------|-------------------------|
|-------------------------|-------------------------|
|-------------------------|-------------------------|
|-7-7-7-7-7-7-7-7-7-7-7-7-|-5-5-5-5-5-5-5-5-5-5-5-5S|
|-5-5-5-5-5-5-5-5-5-5-5-5-|-3-3-3-3-3-3-3-3-3-3-3-3S|
|-------------------------|-------------------------|


  E5                        D5G5D5C5    B5  D5F5D5A#F5G#5
  |-3-| |-3-| |-3-| |-3-|   |-3-|  |-3--|   |-3-| |-3-|
  E E E E E E E E E E E E   Q Q Q  Q  Q Q   Q Q Q Q Q Q
|-------------------------|---------------|---------------|
|-------------------------|---------------|---------------|
|-------------------------|---------------|---------------|
|-9-9-9-9-9-9-9-9-9-9-9-9-|---------------|---------------|
|-7-7-7-7-7-7-7-7-7-7-7-7-|-0-5-0-10-10-9-|-0-3-0-8-3-6---|
|-------------------------|-0-5-0-10-10-9-|-0-3-0-8-3-6---|


  D5A5  Bm7                     D5A5  Bm7             A5
  |--3---|                      |--3---|
  E  E   E   E  E  E  E E  E    E  E   E   E  E  E  E Q
|-----------------------------|--------------------------|
|-----------(7)---(7)---------|-----------(7)---(7)------|
|------------7-----7----------|------------7-----7-------|
|------------7-----7----------|------------7-----7-------|
|-0h(7)h(9)-----9-----9---(x)-|-0h(7)h(9)-----9-----9p7--|
|-0h=7h==9------9-----9---(x)-|-0h=7h==9------9-----9p7--|


  D5A5  Bm7                     D5A5  Bm7             A5
  |--3---|                      |--3---|
  E  E   E   E  E  E  E E  E    E  E   E   E  E  E  E Q
|-----------------------------|--------------------------||
|-----------(7)---(7)---------|-----------(7)---(7)------||
|------------7-----7----------|------------7-----7-------||
|------------7-----7----------|------------7-----7-------||
|-0h(7)h(9)-----9-----9---(x)-|-0h(7)h(9)-----9-----9p7--||
|-0h=7h==9------9-----9---(x)-|-0h=7h==9------9-----9p7--||


   Verse
    D5A5  Bm7                     D5A5  Bm7             A5
    |--3---|                      |--3---|
    E  E   E   E  E  E  E E  E    E  E   E   E  E  E  E Q
||------------------------------|--------------------------|
||o-----------(7)---(7)---------|-----------(7)---(7)------|
||-------------7-----7----------|------------7-----7-------|
||-------------7-----7----------|------------7-----7-------|
||o-0h(7)h(9)-----9-----9---(x)-|-0h(7)h(9)-----9-----9p7--|
||--0h=7h==9------9-----9---(x)-|-0h=7h==9------9-----9p7--|


  D5A5  Bm7                     D5A5  Bm7             A5
  |--3---|                      |--3---|
  E  E   E   E  E  E  E E  E    E  E   E   E  E  E  E Q
|-----------------------------|----------------------------||
|-----------(7)---(7)---------|-----------(7)---(7)-------o||
|------------7-----7----------|------------7-----7---------||
|------------7-----7----------|------------7-----7---------||
|-0h(7)h(9)-----9-----9---(x)-|-0h(7)h(9)-----9-----9p7---o||
|-0h=7h==9------9-----9---(x)-|-0h=7h==9------9-----9p7----||


   Chorus
    G5                D5             E5           Bm7                      D5
                                                               |--3--|
     W                W              H.         E E   +E  E Q  E  E  E  E  E
||------------------|--------------|----------------|-------------------------||
||o-----------------|--------------|----------------|------------(7)---(7)---o||
||--(7)-------------|--------------|----------------|-------------7-----7-----||
||---5--------------|-0------------|-2------------9-|-(9)-9-9-----7-----7-----||
||o--5--------------|-0------------|-2------------9-|-(9)-9-9--9-----9-----0-o||
||---5--------------|-0------------|-2----------2S9-|-(9)-9-9--9-----9-----0--||
|
|   Gtr II
|                                                              |--3--|
|    E  E Q.   E Q    Q  E Q  E Q    Q   Q.   E E E   +E  E Q  E  E  E  E  E
||------------------|--------------|----------------|-------------------------||
||o-----------------|--------------|----------------|-------------7-----7----o||
||------------------|--------------|----------------|-------------7-----7-----||
||---5--5-5------5--|----0------0--|-2---2--------9-|-(9)-9-9-----7-----7-----||
||o--5--5-5----5-5--|-0--0-0--0-0--|-2---2----2---9-|-(9)-9-9--9-----9-----0-o||
||---5--5-5----5-5--|-0--0-0--0-0--|-2---2----2-2S9-|-(9)-9-9--9-----9-----0--||


  G5                D5             E5           Bm7                      D5
                                                             |--3--|
   W                W              H.         E E   +E  E Q  E  E  E  E  E
|-----------------|--------------|----------------|------------------------|
|-----------------|--------------|----------------|------------(7)---(7)---|
|-(7)-------------|--------------|----------------|-------------7-----7----|
|--5--------------|-0------------|-2------------9-|-(9)-9-9-----7-----7----|
|--5--------------|-0------------|-2------------9-|-(9)-9-9--9-----9-----0-|
|--5--------------|-0------------|-2----------2S9-|-(9)-9-9--9-----9-----0-|
|
|                                                            |--3--|
|  E  E Q.   E Q    Q  E Q  E Q    Q   Q.   E E E   +E  E Q  E  E  E  E  E
|-----------------|--------------|----------------|------------------------|
|-----------------|--------------|-----5----------|-------------7-----7----|
|--7--7-7------7--|--------------|-----4----------|-------------7-----7----|
|--5--5-5----5-5--|----0------0--|-2---2--------9-|-(9)-9-9-----7-----7----|
|--5--5-5----5-5--|-0--0-0--0-0--|-2---2----2---9-|-(9)-9-9--9-----9-----0-|
|-----------------|-0--0-0--0-0--|-2---2----2-2S9-|-(9)-9-9--9-----9-----0-|


  G5                D5             E5           B5
   W                W              H.         E E   +E  E E E E E Q
|-----------------|--------------|----------------|------------------||
|-----------------|--------------|----------------|------------------||
|-(7)-------------|--------------|----------------|------------------||
|--5--------------|-0------------|-2------------9-|-(9)-9-9---9-9-9--||
|--5--------------|-0------------|-2------------9-|-(9)-9-9-9-9-9-9--||
|--5--------------|-0------------|-2----------2S9-|-(9)-9-9-9-9-9-9--||
|
|  E  E Q.   E Q    Q  E Q  E Q    Q   Q.   E E E   +E  E E E E E Q
|-----------------|--------------|----------------|------------------||
|-----------------|--------------|-----5----------|------------------||
|-----------------|--------------|-----4----------|------------------||
|-----------------|----0------0--|-2---2--------9-|-(9)-9-9---9-9-9--||
|--2--2-2----2-2--|-0--0-0--0-0--|-2---2----2---9-|-(9)-9-9-9-9-9-9--||
|-----------------|-0--0-0--0-0--|-2---2----2-2S9-|-(9)-9-9-9-9-9-9--||


 Bridge
  N.C.
  |-3-|              |-3-|              |-3-|              |-3-|
  E E E E E E E Q    E E E E E E E Q    E E E E E E E Q    E E E E E E E Q
|------------------|------------------|------------------|------------------||
|------------------|------------------|------------------|------------------||
|------------------|------------------|------------------|------------------||
|------------------|------------------|------------------|------------------||
|------------------|------------------|------------------|------------------||
|-7h9-9-9-7h9-7----|-7h9-9-9-7h9-7----|-7h9-9-9-7h9-7----|-7h9-9-9-7h9-7----||


 I Need an Aaaaarrrmmm...
  B5
  TP          TP           TP           TP           TP
  W          +W           +W           +W           +W
|----------|------------|------------|------------|--------||
|----------|------------|------------|------------|--------||
|----------|------------|------------|------------|--------||
|----------|------------|------------|------------|--------||
|-9--------|-(9)--------|-(9)--------|-(9)--------|-(9)----||
|-9--------|-(9)--------|-(9)--------|-(9)--------|-(9)----||


 Arrrrrrmmmm...
  D5A5  Bm7                     D5A5  Bm7             A5
  |--3---|                      |--3---|
  E  E   E   E  E  E  E E  E    E  E   E   E  E  E  E Q
|-----------------------------|--------------------------|
|-----------(7)---(7)---------|-----------(7)---(7)------|
|------------7-----7----------|------------7-----7-------|
|------------7-----7----------|------------7-----7-------|
|-0h(7)h(9)-----9-----9---(x)-|-0h(7)h(9)-----9-----9p7--|
|-0h=7h==9------9-----9---(x)-|-0h=7h==9------9-----9p7--|


  D5A5  Bm7                     D5A5  Bm7             A5
  |--3---|                      |--3---|
  E  E   E   E  E  E  E E  E    E  E   E   E  E  E  E q
|-----------------------------|--------------------------||
|-----------(7)---(7)---------|-----------(7)---(7)------||
|------------7-----7----------|------------7-----7-------||
|------------7-----7----------|------------7-----7-------||
|-0h(7)h(9)-----9-----9---(x)-|-0h(7)h(9)-----9-----9p7--||
|-0h=7h==9------9-----9---(x)-|-0h=7h==9------9-----9p7--||


   Bridge
    A5B5  A5Bm7                   G5        N.C.
    |-3-| |-3-|  |-3--|  |-3--|   |-3-| |-3-| |-3-|
    E E E E E E  E  E E  E  E E   E E E E E E E E E Q
||------------------------------|----------------------|
||o-------------(7)-----(7)-----|----------------------|
||---------------7-------7------|----------------------|
||---------------7-------7------|----------------------|
||o-7h9-9-7h9-9-----9-9-----9-9-|-5-5-5-5---5h7p0h7----|
||--7h9-9-7h9-9-----9-9-----9-9-|-5-5-5-5-----------9--|


  A5B5  A5Bm7                   G5        N.C.
  |-3-| |-3-|  |-3--|  |-3--|   |-3-| |-3-| |-3-|
  E E E E E E  E  E E  E  E E   E E E E E E E E E Q
|-----------------------------|-----------------------||
|-------------(7)-----(7)-----|----------------------o||
|--------------7-------7------|-------------9-9-9-9---||
|--------------7-------7------|-------------x-x-x-x---||
|-7h9-9-7h9-9-----9-9-----9-9-|-5-5-5-5---5-7-7-7-7--o||
|-7h9-9-7h9-9-----9-9-----9-9-|-5-5-5-5---------------||


  D5                        C5
  |-3-| |-3-| |-3-| |-3-|   |-3-| |-3-| |-3-| |-3-|
  E E E E E E E E E E E E   E E E E E E E E E E E E
|-------------------------|-------------------------|
|-------------------------|-------------------------|
|-------------------------|-------------------------|
|-7-7-7-7-7-7-7-7-7-7-7-7-|-5-5-5-5-5-5-5-5-5-5-5-5S|
|-5-5-5-5-5-5-5-5-5-5-5-5-|-3-3-3-3-3-3-3-3-3-3-3-3S|
|-------------------------|-------------------------|


  E5                        D5G5D5C5    B5
  |-3-| |-3-| |-3-| |-3-|   |-3-|  |-3--|
  E E E E E E E E E E E E   Q Q Q  Q  Q Q
|-------------------------|-----------------|
|-------------------------|-----------------|
|-------------------------|-----------------|
|-9-9-9-9-9-9-9-9-9-9-9-9-|-----------------|
|-7-7-7-7-7-7-7-7-7-7-7-7-|-0-5-0-10-10-9---|
|-------------------------|-0-5-0-10-10-9---|


  D5                        C5                        E5
  |-3-| |-3-| |-3-| |-3-|   |-3-| |-3-| |-3-| |-3-|   |-3-| |-3-| |-3-| |-3-|
  E E E E E E E E E E E E   E E E E E E E E E E E E   E E E E E E E E E E E E
|-------------------------|-------------------------|--------------------------|
|-------------------------|-------------------------|--------------------------|
|-------------------------|-------------------------|--------------------------|
|-7-7-7-7-7-7-7-7-7-7-7-7-|-5-5-5-5-5-5-5-5-5-5-5-5S|=9-9-9-9-9-9-9-9-9-9-9-9--|
|-5-5-5-5-5-5-5-5-5-5-5-5-|-3-3-3-3-3-3-3-3-3-3-3-3S|=7-7-7-7-7-7-7-7-7-7-7-7--|
|-------------------------|-------------------------|--------------------------|


  D5G5D5C5    B5  D5F5D5A#F5G#5 D5G5D5C5    B5  D5F5D5A#F5G#5
  |-3-|  |-3--|   |-3-| |-3-|   |-3-|  |-3--|   |-3-| |-3-|
  Q Q Q  Q  Q Q   Q Q Q Q Q Q   Q Q Q  Q  Q Q   Q Q Q Q Q Q
|---------------|-------------|---------------|-------------||
|---------------|-------------|---------------|-------------||
|---------------|-------------|---------------|-------------||
|---------------|-------------|---------------|-------------||
|-0-5-0-10-10-9-|-0-3-0-8-3-6-|-0-5-0-10-10-9-|-0-3-0-8-3-6-||
|-0-5-0-10-10-9-|-0-3-0-8-3-6-|-0-5-0-10-10-9-|-0-3-0-8-3-6-||


 Outro
  (s8=8)
  D5               D#5 D5               D#5 D5               D#5 D5
  E. S E E S E S E E   E. S E E S E S E E   E. S E E S E S E E   Q  H.
|--------------------|--------------------|--------------------|----------*|
|--------------------|--------------------|--------------------|----------*|
|--------------------|--------------------|--------------------|----------*|
|--------------------|--------------------|--------------------|----------*|
|-0--0-0-0-0-0-0-0-1-|-0--0-0-0-0-0-0-0-1-|-0--0-0-0-0-0-0-0-1-|-0--------*|
|-0--0-0-0-0-0-0-0-1-|-0--0-0-0-0-0-0-0-1-|-0--0-0-0-0-0-0-0-1-|-0--------*|



Duration Legend
---------------
W - whole; H - half; Q - quarter; E - 8th; S - 16th; T - 32nd; X - 64th; a - acciaccatura
+ - note tied to previous; . - note dotted; .. - note double dotted
Uncapitalized letters represent notes that are staccato (1/2 duration)
Irregular groupings are notated above the duration line
Duration letters will always appear directly above the note/fret number it represents the
duration for.  Duration letters with no fret number below them represent rests.  Multi-
bar rests are notated in the form Wxn, where n is the number of bars to rest for.  Low
melody durations appear below the staff

Tablature Legend
----------------
 h   - hammer-on
 p   - pull-off
 b   - bend
 pb  - pre-bend
 r   - bend release (if no number after the r, then release immediately)
 /\  - slide into or out of (from/to "nowhere")
 s   - legato slide
 S   - shift slide
 - natural harmonic
[n]  - artificial harmonic
n(n) - tapped harmonic
 ~   - vibrato
 tr  - trill
 T   - tap
 TP  - trem. picking
 PM  - palm muting
\n/  - tremolo bar dip; n = amount to dip
 \n  - tremolo bar down
 n/  - tremolo bar up
/n\  - tremolo bar inverted dip
 =   - hold bend; also acts as connecting device for hammers/pulls
 <> - volume swell (louder/softer)
 x   - on rhythm slash represents muted slash
 o   - on rhythm slash represents single note slash

Misc Legend
-----------
 |  - bar
||  - double bar
||o - repeat start
o|| - repeat end
*|  - double bar (ending)
 :  - bar (freetime)
 $  - Segno
 &  - Coda
Tempo markers -  = BPM(8/16=s8/s16), where s8 = swing 8ths, s16 = swing 16ths

Tap to rate this tab
# A B C D E F G H I J K L M N O P Q R S T U V W X Y Z