Guitaretab - guitar tabs
Song name
# A B C D E F G H I J K L M N O P Q R S T U V W X Y Z

Sons Of Butcher - Rockload tab

Song: Rockload
Band: Sons Of Butcher
Album: Sons Of Butcher
Tabbed By: Masterbasser36


Intro
|-----------------------------------------------------------------------------------------------|

|-----------------------------------------------------------------------------------------------|

|---------------------------------------------------------79-------------------7-7-7-9-9-9-9---|

|---------------------------------------------------------79---9-9-9-9-9-9-9-9-7-7-7-9-9-9-9---|

|--------------------5-5-5-7-7-7-7-7----------------------57---9-9-9-9-9-9-9-9-5-5-5-7-7-7-7---|

|---7-7-7-7-7-7-7-7-------------------5-7-7-7-7-7-7-7-7---5-7---7-7-7-7-7-7-7-7-5-5-5-7-7-7-7---|


VERSE
|-------------------------------------------------------------|

|-------------------------------------------------------------|

|-------------------------------------------------------------|

|---9-9-9-9-9-9-9-9-9-9-9-9-9-9-9-9-7-7-7-7-7-7-7-7---552---|

|---9-9-9-9-9-9-9-9-9-9-9-9-9-9-9-9-7-7-7-7-7-7-7-7---552---|

|---7-7-7-7-7-7-7-7-6-6-6-6-6-6-6-6-5-5-5-5-5-5-5-5---330---|


CHORUS
|-----------------------------------------------------------------------|

|-----------------------------------------------------------------------|

|-------------------7-7-7-9-9-9-9-------------------7-7-7-9-9-9-9-------|

|---9-9-9-9-9-9-9-9-7-7-7-9-9-9-9---9-9-9-9-9-9-9-9-7-7-7-9-9-9-9---9---|

|---9-9-9-9-9-9-9-9-5-5-5-7-7-7-7---9-9-9-9-9-9-9-9-5-5-5-7-7-7-7---9---|

|---7-7-7-7-7-7-7-7-5-5-5-7-7-7-7---7-7-7-7-7-7-7-7-5-5-5-7-7-7-7---7---|


BRIDGE
|-------------------------------------------------------------------------------------|

|-------------------------------------------------------------------------------------|
[ Tab from: http://www.guitaretab.com/s/sons-of-butcher/86611.html ]
|-------------------------------------------------------------------------------------|

|---66---4---4-4-4---2-2-2-2-2-2-2-2-2-2-2-2-2-2-2-2-2-2-2-2-2-2-2-2-2-2-2-2-2-2-2--|

|---66---4---4-4-4---2-2-2-2-2-2-2-2-2-2-2-2-2-2-2-2-2-2-2-2-2-2-2-2-2-2-2-2-2-2-2--|

|---44---2---2-2-2---0-0-0-0-0-0-0-0-0-0-0-0-0-0-0-0-0-0-0-0-0-0-0-0-0-0-0-0-0-0-0--|


SOLO 
|-------------------------------------------------------------------------------|

|-------------------------------------------------------------------------------|

|-------------------------------------------------------------------------------|

|---11-11-11-11-11-11-11-11-11-11-11-11-11-11-11-11---9-9-9-9-9-9-9-977---4---|

|---11-11-11-11-11-11-11-11-11-11-11-11-11-11-11-11---9-9-9-9-9-9-9-977---4---|

|---9--9--9--9--9--9--9--9--8--8--8--8--8--8--8--8----7-7-7-7-7-7-7-755---2---|


MODULATED CHORUS
|-----------------------------------------------------|

|-----------------------------------------------------|

|-----------------------------9-9-9--11-11-11-11-11---|

|---11-11-11-11-11-11-11-11---9-9-9--11-11-11-11-11---|

|---11-11-11-11-11-11-11-11---7-7-7-9--9--9--9--9----|

|---9-9--9-9-9-9--9-9----7-7-7--9--9--9--9--9----|


MODULATED BRIDGE
|---------------------------------------------------------------------------------|

|---------------------------------------------------------------------------------|

|---------------------------------------------------------------------------------|

|---8-8---6---6-6-6---4-4-4-4-4-4-4-4-4-4-4-4-4-4-4-4-4-4-4-4-4-4-4-4-4-4-4-4-4---|

|---8-8---6---6-6-6---4-4-4-4-4-4-4-4-4-4-4-4-4-4-4-4-4-4-4-4-4-4-4-4-4-4-4-4-4---|

|---6-6---4---4-4-4---2-2-2-2-2-2-2-2-2-2-2-2-2-2-2-2-2-2-2-2-2-2-2-2-2-2-2-2-2---| 


Another fun song by Sons of Butcher!
Please Rate!
Related for Rockload tab