Song name
# A B C D E F G H I J K L M N O P Q R S T U V W X Y Z

Sons Of Butcher - Lick Me Up tab

All You Moms Now Take Off Your Bras.....

e|-------------------------------------------------------|
B|-------------------------------------------------------|
G|-------------------------------------------------------|
D|-5-5-5-5-5--8-8-8-8-8--12-12-12-12-12--10-10-10-10--10-|
A|-5-5-5-5-5--8-8-8-8-8--12-12-12-12-12--10-10-10-10--10-|
E|-3-3-3-3-3--6-6-6-6-6--10-10-10-10-10--8--8--8--8---8--|

YEAH! Like Me Up, Please Stick Out Your Tounges & Lick My Face! Lick Me Up, Please Stick Out--*mumbles*

e|-----------------------------------------------------------------------------|
B|-----------------------------------------------------------------------------|
G|-----------------------------------------------------------------------------|
D|-10-10-10-10-10--6-6-6-6-6--8-8-8-8-8--5-5-5-5-5--10-10-10-10-10--6-6-6-6-6--|
A|-8--8--8--8--8---6-6-6-6-6--8-8-8-8-8--5-5-5-5-5--10-10-10-10-10--6-6-6-6-6--|
E|-8--8--8--8--8---4-4-4-4-4--6-6-6-6-6--3-3-3-3-3--8--8--8--8--8---4-4-4-4-4--|
Tap to rate this tab
# A B C D E F G H I J K L M N O P Q R S T U V W X Y Z