Song name
# A B C D E F G H I J K L M N O P Q R S T U V W X Y Z

Sons Of Butcher - In Thru The Outhole tab

IN THRU THE OUTHOLE
TABS BY RICKY
TUNING: STANDARD

VERSES
V.1  In thru the out hole, my number one goal
V.2  What do I gotta do, for the hole to let me go thru?
---------------------------------------------------0---|
---------------------------------------------------0---|
----66-4-6-4----------------------------1------------|
----66-4-6-4--66-4-6-42-2-2----2--------------------|
----44-4-4-4--66-4-6-4---2-2-2----2------------------|
---------------------44-4-4-4---0-0-0----0------------|

BUILD 1
----------------------------------------------------------------------------------|
----------------------------------------------------------------------------------|
----------------------------------------------------------------------------------|
-2-2-2-2-2-2-2-2-2-2-2-2-----------------------------2-2-2-2-2-2-----12-12-12-12--|
-2-2-2-2-2-2-2-2-2-2-2-2-----------------------------2-2-2-2-2-2-----12-12-12-12--|
-0-0-0-0-0-0-0-0-0-0-0-0-3-0-0-4-0-0-5-0-0----0-0-0-0-0-0-----10-10-10-10---------|

CHORUS
Im goin in, In thru the out hole of love. Please let me in, its the one place Ive never been.
---------------------------------------------------------------------|
---------------------------------------------------------------------|
---------------------------------------------------------------------|
--14-14-1414-14-14----99-99-9-9---77-77-7-7---11-11-11---9-9-9--|
--14-14-1414-14-14----99-99-9-9---77-77-7-7---11-11-11---9-9-9--|
--12-12-1212-12-12----77-77-7-7---55-55-5-5----999---7-7-7----|

OUTRO
I declare that out holes mine.
-------------------------------------------------------------------------------------------------0--|
-------------------------------------------------------------------------------------------------0--|
-------------------------------------------------------------------------------------------------1--|
-7-7-7-7-7-7-7-7-7-7-7-7-7-7-7-7-7-7-7-7-74-4-4-4-4-4-4-----2-----------2--------------------------|
-7-7-7-7-7-7-7-7-7-7-7-7-7-7-7-7-7-7-7-7-74-4-4-4-4-4-4-----2-----------2--------------------------|
-5-5-5-5-5-5-5-5-5-5-5-5-5-5-5-5-5-5-5-5-52-2-2-2-2-2-2-----0-----------0--------------------------|
Tap to rate this tab
# A B C D E F G H I J K L M N O P Q R S T U V W X Y Z