Song name
# A B C D E F G H I J K L M N O P Q R S T U V W X Y Z

Sons Of Butcher - In Thru The Outhole tab

IN THRU THE OUTHOLE
TABS BY RICKY
TUNING: STANDARD

VERSES
V.1 – In thru the out hole, my number one goal
V.2 – What do I gotta do, for the hole to let me go thru?
---------------------------------------------------0---|
---------------------------------------------------0---|
----6—6-4-6-4—----------------------------1------------|
----6—6-4-6-4--6—6-4-6-4—2-2-2----2--------------------|
----4—4-4-4-4--6—6-4-6-4---2-2-2----2------------------|
---------------------4—4-4-4-4---0-0-0----0------------|

BUILD 1
----------------------------------------------------------------------------------|
----------------------------------------------------------------------------------|
----------------------------------------------------------------------------------|
-2-2-2-2-2-2-2-2-2-2-2-2-----------------------------2-2-2-2-2-2-----12-12-12-12--|
-2-2-2-2-2-2-2-2-2-2-2-2-----------------------------2-2-2-2-2-2-----12-12-12-12--|
-0-0-0-0-0-0-0-0-0-0-0-0-3-0-0-4-0-0-5-0-0----0-0-0-0-0-0-----10-10-10-10---------|

CHORUS
I’m goin’ in, In thru the out hole of love. Please let me in, it’s the one place I’ve never been.
---------------------------------------------------------------------|
---------------------------------------------------------------------|
---------------------------------------------------------------------|
--14-14-14—14-14-14----9—9-9—9-9-9---7—7-7—7-7-7---11-11-11---9-9-9--|
--14-14-14—14-14-14----9—9-9—9-9-9---7—7-7—7-7-7---11-11-11---9-9-9--|
--12-12-12—12-12-12----7—7-7—7-7-7---5—5-5—5-5-5----9—9—9---7-7-7----|

OUTRO
I declare that out hole’s mine.
-------------------------------------------------------------------------------------------------0--|
-------------------------------------------------------------------------------------------------0--|
-------------------------------------------------------------------------------------------------1--|
-7-7-7-7-7-7-7-7-7-7-7-7-7-7-7-7-7-7-7-7-7—4-4-4-4-4-4-4-----2-----------2--------------------------|
-7-7-7-7-7-7-7-7-7-7-7-7-7-7-7-7-7-7-7-7-7—4-4-4-4-4-4-4-----2-----------2--------------------------|
-5-5-5-5-5-5-5-5-5-5-5-5-5-5-5-5-5-5-5-5-5—2-2-2-2-2-2-2-----0-----------0--------------------------|
Tap to rate this tab
# A B C D E F G H I J K L M N O P Q R S T U V W X Y Z