Song name
# A B C D E F G H I J K L M N O P Q R S T U V W X Y Z

Sons Of Butcher - Partys On tab

MAIN RIFF
---------------------------|
---------------------------|
--------------6-5-6-5-8----|
-6-6-5-6—6-5-6-5-8-8-------|
-6-6-5-6—4-3-4-3-6-8-------|
-4-4-3-4-----------------6-|

---------------------------|
---------------------------|
--------------6-5-6-5-8----|
-6-6-5-6—6-5-6-5-8-8-------|
-6-6-5-6—4-3-4-3-6-8-------|
-4-4-3-4-----------------6-|

VERSE 1 –
Becoming what I hate

Palm muted This part played open
-------------------------------------------------------------------------|
-------------------------------------------------------------------------|
---------------------------------------6-6-6-5-5-5-3-3-3-----------------|
-6-6-6-6-5-6—6-6-6-6-6-5-6-6-6-6-5-5-5-3-3-3-3-3-3-3-3-3-3---------------|
-6-6-6-6-5-6—6-6-6-6-6-5-6-4-4-4-3-3-3-1-1-1-3-3-3-3-3-3-3---------------|
-4-4-4-4-3-4—4-4-4-4-4-3-4--------------------------1-1-1-1-1-1-1--------|

To have sex on the first date
-------------------------------------------------------------------------|
-------------------------------------------------------------------------|
---------------------------------------6-6-6-5-5-5-3-3-3-----------------|
-6-6-6-6-5-6—6-6-6-6-6-5-6-6-6-6-5-5-5-3-3-3-3-3-3-3-3-3-3---------------|
-6-6-6-6-5-6—6-6-6-6-6-5-6-4-4-4-3-3-3-1-1-1-3-3-3-3-3-3-3---------------|
-4-4-4-4-3-4—4-4-4-4-4-3-4--------------------------1-1-1-1-1-1-1--------|

CHORUS

The party’s on tonight
------------------------------------------------------|
------------------------------------------------------|
--------------6-5-6-5-8------------------6-5-6-5-8----|
-6-6-5-6—6-5-6-5-8-8--6-6-5-6—6-5-6-5-8-8-------------|
-6-6-5-6—4-3-4-3-6-8--6-6-5-6—4-3-4-3-6-8-------------|
-4-4-3-4-----------------6--4-4-3-4-----------------6-|

I’m metrosexually just right
------------------------------------------------------|
------------------------------------------------------|
--------------6-5-6-5-8------------------6-5-6-5-8----|
-6-6-5-6—6-5-6-5-8-8--6-6-5-6—6-5-6-5-8-8-------------|
-6-6-5-6—4-3-4-3-6-8--6-6-5-6—4-3-4-3-6-8-------------|
-4-4-3-4-----------------6--4-4-3-4-----------------6-|

If you’re lookin’ gay you don’t have to…..
------------------------------------------------------|
------------------------------------------------------|
--------------6-5-6-5-8------------------6-5-6-5-8----|
-6-6-5-6—6-5-6-5-8-8--6-6-5-6—6-5-6-5-8-8-------------|
-6-6-5-6—4-3-4-3-6-8--6-6-5-6—4-3-4-3-6-8-------------|
-4-4-3-4-----------------6--4-4-3-4-----------------6-|

BRIDGE

Try, you don’t gotta try
---------------------------------------------------------------------------|
---------------------------------------------------------------------------|
---------------------------------------------------------------------------|
-3-3-3-3-3-3-3-5-5-5-5-5-5-5-5-5-6-6-6-6-6-6-6-8-8-8-8-8-8-8-8-------------|
-3-3-3-3-3-3-3-5-5-5-5-5-5-5-5-5-6-6-6-6-6-6-6-8-8-8-8-8-8-8-8-------------|
-1-1-1-1-1-1-1-3-3-3-3-3-3-3-3-3-4-4-4-4-4-4-4-6-6-6-6-6-6-6-6-------------|

Tonight is my night, for my silk to shine
-------------------------------------------------------------------------------------------|
-------------------------------------------------------------------------------------------|
-10-10-10-10-10-10-10-8-8-8-8-8-8-8-8-6-6-6-6-6-6-6----------------------------------------|
-10-10-10-10-10-10-10-8-8-8-8-8-8-8-8-6-6-6-6-6-6-6-8-8-8-8-8-8-8-8------------------------|
--8--8---8---8---8---8---8-6-6-6-6-6-6-6-6-4-4-4-4-4-4-4-8-8-8-8-8-8-8-8-------------------|
--------------------------------------------------------------------------6-6-6-6-6-6-6-6--|
3 BIG SLIDES

The sluts will be mine, so bring on the shit
------------------------------------------------|
------------------------------------------------|
------------------------------------------------|
-6-6-6-6-6-6-6-4-4-4-4-4-4-4-4-4-2-----4--------|
-6-6-6-6-6-6-6-4-4-4-4-4-4-4-4-4-2-----4--------|
-4-4-4-4-4-4-4-2-2-2-2-2-2-2-2-2-0-----2--------|

BACK TO MAIN RIFF

SOLO – / = BEND UP

--4-4----4-4—--4-4—-4-4—-4-4-------—16-16-16-16-16-16-16-16-19-16--------------------------------------------------------------------|
--4-4----4-4--—4-4-—4-4—-4-4-------—16-16-16-16-16-16-16-16---------19-16------------------------------------------------------------|
6/-----6/------6/------6/-------6/---------------16-16-16-16-16-16-16-16------------------18-16----16-18-16-----16-18----------------|
------------------------------------------------------------------------------------------------------------------18-------------18--|
-------------------------------------------------------------------------------------------------------------------------------------|
-------------------------------------------------------------------------------------------------------------------------------------|

VERSE 2 LYRICS
Hot mayonnaise ass rub, hot beef in the hot tub
Havin’ your cake and bangin’ it too, tonight!

BANG, BANG, BANG ASS!
-----------------------------|
-----------------------------|
-----------------------------|
-3-3-3-3-6-3-3-8-3-3-10------|
-3-3-3-3-6-3-3-8-3-3-10------|
-1-1-0-1-4-0-1-6-0-1--8------|

SOLO BOLD = BEND UP
----------------------------------------------------------|
--9—9—-9-—11—13—13—9—9—9—-13—11-11------------------------|
-11-11-11—13--15-15--11-11-11-15-13-13--------------------|
----------------------------------------------------------|
----------------------------------------------------------|
----------------------------------------------------------|
Tap to rate this tab
 
# A B C D E F G H I J K L M N O P Q R S T U V W X Y Z