Guitaretab - guitar tabs
Song name
# A B C D E F G H I J K L M N O P Q R S T U V W X Y Z

Sons Of Butcher - Whip Em Out tab

MAIN RIFF – bolded = bend
-------------------------------------------------------------|
-2----2---------------------------2-----2--------------------|
-2----2---------------------------2-----2--------------------|
-2----2--3-3—3—5-5-5-----2-----2--3-3—3-—5-5-5---------------|
-0----0--3-3—3—5-5-5-----0-----0--3-3—3-—5-5-5---------------|
----3-----1-1—1—3-0-3--------3------1-1—1-—3-0-3-------------|


VERSES – PALM MUTED

How do you know the size when most the bra’s compress the fullness
-----------------------------------------------------------------------------------|
-----------------------------------------------------------------------------------|
---------------------------6—6-6—6—6-6-6—6-----------------------------------------|
-7-7—7—7-7—7—6—6-6—6—6-6-6—6—4-4—4—4-4—4—4-4-4—4—2-2-------------------------------|
-7-7—7—7-7—7—4—4-4—4—4-4-4—6—4-4—4—4-4—4—4-4-4—4—2-2-------------------------------|
-5-5—5—5-5—5—4—4-4—4—4-4-4—4—2-2—2—2-2—2—2-2-2—2—0-0-------------------------------|

It takes a well trained eye to compensate the weight vs. tightness
-----------------------------------------------------------------------------------|
-----------------------------------------------------------------------------------|
--------------------------6—6-6—6—6-6-6—6------------------------------------------|
-7-7—7—7-7—7—6—6-6—6—6-6-6—6—4-4—4—4-4—4—4-4-4—4—2-2-------------------------------|
-7-7—7—7-7—7—4—4-4—4—4-4-4—6—4-4—4—4-4—4—4-4-4—4—2-2-------------------------------|
-5-5—5—5-5—5—4—4-4—4—4-4-4—4—2-2—2—2-2—2—2-2-2—2—0-0-------------------------------|

But its never been too hard for me
-------------------------------------------------------------------------------|
-------------------------------------------------------------------------------|
---------------------------6—6-6—6—6-6-6—6-------------------------------------|
-7-7—7—7-7—7—6—6-6—6—6-6-6—6—4-4—4—4-4—4—4-4-4—4—2-2-2-2-2-2-2-----------------|
-7-7—7—7-7—7—4—4-4—4—4-4-4—4—4-4—4—4-4—4—4-4-4—4—2-2-2-2-2-2-2-----------------|
-5-5—5—5-5—5—------------------------------—2-2—2—2-2—2—2-2-2—2—0-0-0-0-0-0-0--|

CHORUS

Whip those out, give them some breathing room why the hell would you strap em down?
---------------------------------------------------------|
-2---2--------------------------2---2--------------------|
-2---2--------------------------2---2--------------------|
-2---2--3-3—3—5-5-5----2---2--3-3—3—5-5-5----------------|
-0---0--3-3—3—5-5-5----0---0--3-3—3—5-5-5----------------|
---3-----1-1—1—3-0-3------3-----1-1—1—3-0-3--------------|

I can’t see how bra’s are even comfortable

---------------------------|
---------------------------|
-2---2---------------------|
-2---2---------------------|
-2---2--3-3----5-5---------|
-0---0--3-3—-5-5-----------|
---3-----1-1-— 3-3---------|
---------------------------|

Whip those out for all of the world to see, especially me!
---------------------------------------------------------------|
-2---2---------------------------------------------------------|
-2---2---------------------------------------------------------|
-2---2--3-3—3—5-5-5---10-10-10-10-10-10-10-10-10---------------|
-0---0--3-3—3—5-5-5---10-10-10-10-10-10-10-10-10---------------|
---3-----1-1—1—3-3-3----8---8--8---8---8---8--8---8—8----------|

WHIP THOSE OUT!
--------------------------------------------|
--------------------------------------------|
--------------------------------------------|
-5—5-5—5—5—5—-------3-5-------3-5-----------|
-5—5-5—5—5—5----3-5-------3-5---------------|
-3—3-3—3—3—3--------------------------------|

WHIP THOSE OUT!
--------------------------------------------|
--------------------------------------------|
--------------------------------------------|
-5—5-5—5—5—5—-------3-5-------3-5-----------|
-5—5-5—5—5—5----3-5-------3-5---------------|
-3—3-3—3—3—3--------------------------------|
[ Tab from: http://www.guitaretab.com/s/sons-of-butcher/94209.html ]
WHIP THOSE OUT!
--------------------------------------------|
--------------------------------------------|
--------------------------------------------|
-5—5-5—5—5—5—-------3-5-------3-5-----------|
-5—5-5—5—5—5----3-5-------3-5---------------|
-3—3-3—3—3—3--------------------------------|

WHIP THOSE OUT!
---------------------------------------------------------------------------------------------------|
---------------------------------------------------------------------------------------------------|
---------------------------------------------------------------------------------------------------|
-5—5-5—5—5—5—-------3-5-------3-5---------3-5-------3-5-------3-5-------3-5---------3-5-------3-5--|
-5—5-5—5—5—5----3-5-------3-5---------3-5-------3-5-------3-5-------3-5---------3-5-------3-5------|
-3—3-3—3—3—3---------------------------------------------------------------------------------------|

SOLO – Bold = bend
---------------------------------------------------------|
-2—5—2-----7—7-5-7-5-2-0-2—5—2---10—12-------------------|
-2—5—2—--7—7-5-7-5-2-0-2—5—2—12—14-----------------------|
-2—5—2—--7—7-5-7-5-2-0-2—5—2-----------------------------|
---------------------------------------------------------|
---------------------------------------------------------|

VERSE 2
It’s fun to fantasize but I would rather see them with my own eyes
It won’t be embarrassing if all of you whip em out at the same time
So whip em out on the count of three…ONE, TWO, THREE!

BRIDGE

Why flash em alone again when all your friends can flash them with you
-------------------------------------------------------------------------------------|
-------------------------------------------------------------------------------------|
-------------------------------------------------------------------5-5-5-5-7-7-7-7---|
-2-2-2-2-5-5-5-5-7-7-7-7-5-5-5-5-7-7-7-7-5-5-5-5-5-5-5-5-7-7-7-7---------------------|
-2-2-2-2-5-5-5-5-7-7-7-7-5-5-5-5-7-7-7-7-5-5-5-5-3-3-3-3-5-5-5-5---------------------|
-0-0-0-0-3-3-3-3-5-5-5-5-3-3-3-3-5-5-5-5-3-3-3-3-------------------------------------|

So get ready to bare it all without the bra you know what to do, DO IT!
--------------------------------------------------------------------------------------------------|
--------------------------------------------------------------------------------------------------|
-------------------------------------------------------------------5-5-5-5-7-7-7-7-7-7-7-7-7-7-7--|
-2-2-2-2-5-5-5-5-7-7-7-7-5-5-5-5-7-7-7-7-5-5-5-5-5-5-5-5-7-7-7-7-7-7-7-7-7-7-7--------------------|
-2-2-2-2-5-5-5-5-7-7-7-7-5-5-5-5-7-7-7-7-5-5-5-5-3-3-3-3-5-5-5-5-5-5-5-5-5-5-5--------------------|
-0-0-0-0-3-3-3-3-5-5-5-5-3-3-3-3-5-5-5-5-3-3-3-3--------------------------------------------------|

WHIP EM OUT MODULATED, INSERT YOUR OWN RANDOM WHAMMIED NOTES!

WHIP THOSE OUT!
---------------------------------------------------------|
---------------------------------------------------------|
---------------------------------------------------------|
-7—7-7---7—7—7-------------------------------------------|
-7—7-7---7—7—7—------WHAMMY SOMETHING!-------------------|
-5—5-5---5—5—5-------------------------------------------|

WHIP THOSE OUT!
---------------------------------------------------------|
---------------------------------------------------------|
---------------------------------------------------------|
-7—7-7---7—7—7-------------------------------------------|
-7—7-7---7—7—7—------WHAMMY ANYTHING!--------------------|
-5—5-5---5—5—5-------------------------------------------|

WHIP THOSE OUT!
-----------------------------------------------------------------|
-----------------------------------------------------------------|
-----------------------------------------------------------------|
-7—7-7---7—7—7---------------------------------------------------|
-7—7-7---7—7—7—------WHAMMY YOUR OWN BALLS!----------------------|
-5—5-5---5—5—5---------------------------------------------------|

WHIP THOSE OUT!
---------------------------------------------------------|
---------------------------------------------------------|
---------------------------------------------------------|
-7—7-7---7—7---------------------------------------------|
-7—7-7---7—7—--------------------------------------------|
-5—5-5---5—5---------------------------------------------|
Related for Whip Em Out tab
×
Whip Em Out