Guitaretab - guitar tabs
Song name
# A B C D E F G H I J K L M N O P Q R S T U V W X Y Z

Sons Of Butcher - F The World tab

MAIN RIFF - \ = SLIDE
----------------------------------------------------------------------|
----------------------------------------------------------------------|
----------------------------------------------------------------------|
-0-0-0-12\--4𦴘4-4-4-40-0-0-12\--4𦴘--4-4-4-4-------------------|
-0-0-0-12\--4𦴘4-4-4-40-0-0-12\--4𦴘--4-4-4-4-------------------|
-0-0-0-12\--4𦴘4-4-4-40-0-0-12\--4𦴘--4-4-4-4-------------------|

VERSE 1

Everyone suck my ass
--------------------------------------------------------------|
--------------------------------------------------------------|
--------------------------------------------------------------|
-0-0-0-0-0-0-0-0-0-2-2-2-4-4-4-4-4-4-7-7-7-7-7-7--------------|
-0-0-0-0-0-0-0-0-0-2-2-2-4-4-4-4-4-4-7-7-7-7-7-7--------------|
-0-0-0-0-0-0-0-0-0-2-2-2-4-4-4-4-4-4-7-7-7-7-7-7--------------|

You all can eat some shit
--------------------------------------------------------------|
--------------------------------------------------------------|
--------------------------------------------------------------|
-0-0-0-0-0-0-0-0-0-2-2-2-4-4-4-4-4-4-7-7-7-7-7-7--------------|
-0-0-0-0-0-0-0-0-0-2-2-2-4-4-4-4-4-4-7-7-7-7-7-7--------------|
-0-0-0-0-0-0-0-0-0-2-2-2-4-4-4-4-4-4-7-7-7-7-7-7--------------|

Your faces I will kick if
--------------------------------------------------------------|
--------------------------------------------------------------|
--------------------------------------------------------------|
-0-0-0-0-0-0-0-0-0-2-2-2-4-4-4-4-4-4-7-7-7-7-7-7--------------|
-0-0-0-0-0-0-0-0-0-2-2-2-4-4-4-4-4-4-7-7-7-7-7-7--------------|
-0-0-0-0-0-0-0-0-0-2-2-2-4-4-4-4-4-4-7-7-7-7-7-7--------------|

you keep pissin me off
--------------------------------------------------------------|
--------------------------------------------------------------|
--------------------------------------------------------------|
-0-0-0-0-0-0-0-0-0-2-2-2-2-2-2-2-2-2-2-2-2--------------------|
-0-0-0-0-0-0-0-0-0-2-2-2-2-2-2-2-2-2-2-2-2--------------------|
-0-0-0-0-0-0-0-0-0-2-2-2-2-2-2-2-2-2-2-2-2--------------------|

CHORUSES
[ Tab from: http://www.guitaretab.com/s/sons-of-butcher/94211.html ]
F the world, when shit gets you down I say
----------------------------------------------------------------------------------|
----------------------------------------------------------------------------------|
----------------------------------------------------------------------------------|
-0-0-0-12\--4𦴘4-4-4-40-0-0-12\--4𦴘--4-4-0-0-0-0-2-2-2-2-------------------|
-0-0-0-12\--4𦴘4-4-4-40-0-0-12\--4𦴘--4-4-0-0-0-0-2-2-2-2-------------------|
-0-0-0-12\--4𦴘4-4-4-40-0-0-12\--4𦴘--4-4-0-0-0-0-2-2-2-2-------------------|

F the world! Now tell me how this sounds卍ig it!

----------------------------------------------------------------------|
----------------------------------------------------------------------|
----------------------------------------------------------------------|
-0-0-0-12\--4𦴘4-4-7-7-7-7-9-9-9-9---------------------------------|
-0-0-0-12\--4𦴘4-4-7-7-7-7-9-9-9-9---------------------------------|
-0-0-0-12\--4𦴘4-4-7-7-7-7-9-9-9-9---------------------------------|

VERSE 2
I抦 bending over now, line up and take a lick
Unless you are a dude in which case your nuts I will kick

BRIDGE  PALM MUTED
--------------------------------------------------------------|
--------------------------------------------------------------|
--------------------------------------------------------------|
-0-0-0-9-9-9-9-9-9-11-9-7-0-0-0-4-4-4-4-4-4-7-4-2-0-----------|
-0-0-0-9-9-9-9-9-9-11-9-7-0-0-0-4-4-4-4-4-4-7-4-2-0-----------|
-0-0-0-9-9-9-9-9-9-11-9-7-0-0-0-4-4-4-4-4-4-7-4-2-0-----------|

--------------------------------------------------------------|
--------------------------------------------------------------|
--------------------------------------------------------------|
-0-0-0-9-9-9-9-9-9-11-9-7-0-0-0-4-4-4-4-4-4-7-4-2-0-----------|
-0-0-0-9-9-9-9-9-9-11-9-7-0-0-0-4-4-4-4-4-4-7-4-2-0-----------|
-0-0-0-9-9-9-9-9-9-11-9-7-0-0-0-4-4-4-4-4-4-7-4-2-0-----------|

--------------------------------------------------------------|
--------------------------------------------------------------|
--------------------------------------------------------------|
-0-0-0-9-9-9-9-9-9-11-9-7-0-0-0-4-4-4-4-4-4-7-4-2-0-----------|
-0-0-0-9-9-9-9-9-9-11-9-7-0-0-0-4-4-4-4-4-4-7-4-2-0-----------|
-0-0-0-9-9-9-9-9-9-11-9-7-0-0-0-4-4-4-4-4-4-7-4-2-0-----------|

-----------------------------------------------------------------------|
-----------------------------------------------------------------------|
-----------------------------------------------------------------------|
-0-0-0-9-9-9-9-9-9-11-9-7-0-0-0-4-4-4-4-4-4-7-4-2-0----2--------------|
-0-0-0-9-9-9-9-9-9-11-9-7-0-0-0-4-4-4-4-4-4-7-4-2-0----2--------------|
-0-0-0-9-9-9-9-9-9-11-9-7-0-0-0-4-4-4-4-4-4-7-4-2-0----2--------------|
Related for F The World tab