Guitaretab - guitar tabs
Song name
# A B C D E F G H I J K L M N O P Q R S T U V W X Y Z

Sons Of Butcher - Fuck Producers tab

MAIN RIFF
--------------------------------------------------------|
--------------------------------------------------------|
--------------------------------------------------------|
-4𦴘4-3-3-3-4𦴘4-3-3-3-4𦴘----------------------|
-4𦴘4-3-3-3-4𦴘4-3-3-3-4𦴘----------------------|
-2𦌾---2-1-0-1-2𦌾----2-1-0-1-2𦌾-----------------|

VERSES 1

They say producers are huge assholes, and let me tell you its true
-------------------------------------------------------------|
-------------------------------------------------------------|
-------------------------------------------------------------|
-4𦴘4-3-3-3-4𦴘4-3-3-3-7-7-7-7-5-5-5-5-----------------|
-4𦴘4-3-3-3-4𦴘4-3-3-3-7-7-7-7-5-5-5-5-----------------|
-2𦌾----2-1-0-1-2𦌾2-1-0-1-5-5-5-5-3-3-3-3--------------|

They抣l help you out with all your music, then say it wasn抰 written by you
-------------------------------------------------------------|
-------------------------------------------------------------|
-------------------------------------------------------------|
-4𦴘4-3-3-3-4𦴘4-3-3-3-7-7-7-7-5-5-5-5-----------------|
-4𦴘4-3-3-3-4𦴘4-3-3-3-7-7-7-7-5-5-5-5-----------------|
-2𦌾---2-1-0-1-2-𦌾---2-1-0-1-5-5-5-5-3-3-3-3------------|

CHORUSES

Save the music, it抯 up to you
----------------------------------------------|
----------------------------------------------|
----------------------------------------------|
-4-4-4-4-4-4-4-4-9-9-9-9-11-11-11-11----------|
-4-4-4-4-4-4-4-4-9-9-9-9-11-11-11-11----------|
-2-2-2-2-2-2-2-2-7-7-7-7--99--9--9-----------|

Fuck producers before they fuck you
----------------------------------------------|
----------------------------------------------|
----------------------------------------------|
-4-4-4-4-4-4-4-4-9-9-9-9--11-11--11--11-------|
-4-4-4-4-4-4-4-4-9-9-9-9--11-11--11--11-------|
-2-2-2-2-2-2-2-2-7-7-7-7----------------------|9𨖹9


LEAD  BOLD = BEND
--------- ------------------------------------------------------|
----19---1919---19-22-21-1717-17-17-19-17-19------------------|
-21---2121---21------------------------------------------------|
----------------------------------------------------------------|
----------------------------------------------------------------|
----------------------------------------------------------------|

VERSE 2
They抣l make you feel like you抮e a rock star
They抣l blow smoke up your ass
Then soon enough your songs are hostage
Until they抳e got all your cash

BRIDGE

Their input will fuck your songs

------X-X--------X-X------------X-X--------X-X---|
------X-X--------X-X------------X-X--------X-X---|
------X-X--------X-X------7-7-X-X-7------X-X-----|
-4-4-X-X-4-4-4-X-X-4-7-7-X-X-7-2-2-X-X-----------|
-4-4-X-X-4-4-4-X-X-4-5-5-X-X-5-2-2-X-X-----------|
-2-2-X-X-2-2-2-X-X-2------X-X----0-0-X-X---------|

Their instincts are always wrong

------X-X--------X-X-----------X-X--------X-X---|
------X-X--------X-X-----------X-X--------X-X---|
------X-X--------X-X------7-7-X-X-7------X-X----|
-4-4-X-X-4-4-4-X-X-4-7-7-X-X-7-2-2-X-X----------|
-4-4-X-X-4-4-4-X-X-4-5-5-X-X-5-2-2-X-X----------|
-2-2-X-X-2-2-2-X-X-2------X-X----0-0-X-X--------|
[ Tab from: http://www.guitaretab.com/s/sons-of-butcher/94212.html ]
They抮e dry humping the rock dream

------------------------------------------------------------------------------------|
------------------------------------------------------------------------------------|
------------------------------------------------------------------------------------|
-4-6-7-9-12-12-12-12-14-14-14-14---4-6-7-9-12-12-12-12-14-14-14-14------------------|
-4-6-7-9-12-12-12-12-14-14-14-14---4-6-7-9-12-12-12-12-14-14-14-14------------------|
-2-4-5-7-10-10-10-10-12-12-12-12---2-4-5-7-10-10-10-10-12-12-12-12------------------|

When they should be bagging groceries

------------------------------------------------------------------------------------|
------------------------------------------------------------------------------------|
------------------------------------------------------------------------------------|
-4-6-7-9-12-12-12-12-14-14-14-14---4-6-7-9-12-12-12-12-14-14-14-14------------------|
-4-6-7-9-12-12-12-12-14-14-14-14---4-6-7-9-12-12-12-12-14-14-14-14------------------|
-2-4-5-7-10-10-10-10-12-12-12-12---2-4-5-7-10-10-10-10-12-12-12-12------------------|

SOLO
------------------------------------------------------------19-19-19-19-17--------17-----17--------------14--|
-17-14---------------------------------------14-17--------------------------19-19----19---19-17-17/----------|
--------16-14-------------------------14-16------------------------------------------------------------------|
---------------16-14-----------14-16-------------------------------------------------------------------------|
----------------------16-14-16-------------------------------------------------------------------------------|
-------------------------------------------------------------------------------------------------------------|

-14-14----14--------------------------14-----14-----14-----14------14--|
--------17/-----17-14-----------------14-----14-----14-----14------14--|
-----------------------16-14----14----14-----14-----14-----14------14--|
-------------------------------16----16-----16-----16-----16-----16----|
-----------------------------------------------------------------------|
-----------------------------------------------------------------------|

OUTRO

If your music is good enough

------X-X--------X-X------------X-X--------X-X---|
------X-X--------X-X-----------X-X--------X-X----|
------X-X--------X-X------7-7-X-X-7------X-X-----|
-4-4-X-X-4-4-4-X-X-4-7-7-X-X-7-7-7-X-X-----------|
-4-4-X-X-4-4-4-X-X-4-5-5-X-X-5-7-7-X-X-----------|
-2-2-X-X-2-2-2-X-X-2------X-X----5-5-X-X---------|

Produce it by yourself

------X-X--------X-X-----------X-X--------X-X---|
------X-X--------X-X-----------X-X--------X-X---|
------X-X--------X-X------7-7-X-X-7------X-X----|
-4-4-X-X-4-4-4-X-X-4-7-7-X-X-7-7-7-X-X----------|
-4-4-X-X-4-4-4-X-X-4-5-5-X-X-5-7-7-X-X----------|
-2-2-X-X-2-2-2-X-X-2------X-X----5-5-X-X--------|

------------------------------------------------------|
------------------------------------------------------|
------------------------------------------------------|
-4---6---7---9---12----4-4-3-3-3-4--------------------|
-4---6---7---9---12----4-4-3-3-3-4--------------------|
-2---4---5---7---10----2-2-1-0-1-2--------------------|
Related for Fuck Producers tab