Guitaretab - guitar tabs
Song name
# A B C D E F G H I J K L M N O P Q R S T U V W X Y Z

Sons Of Butcher - Razors tab

RAZORS
C TUNING
tab by sol petrelli
a very very fast song
one of the best sob songs

OPENING RIFF
-------------------------------------------------|
-------------------------------------------------|
-------------------------------------------------|
-0-3-5-0-3-5-0-3-5-0-3-5-0-3-5-0-3-5-------------|
-0-3-5-0-3-5-0-3-5-0-3-5-0-3-5-0-3-55-----------|
-0-3-5-0-3-5-0-3-5-0-3-5-0-3-5-0-3-5-------------|

-------------------------------------------------|
-------------------------------------------------|
-------------------------------------------------|
-0-3-5-0-3-5-0-3-5-0-3-5-0-3-5-0-3-5-------------|
-0-3-5-0-3-5-0-3-5-0-3-5-0-3-5-0-3-53-----------|
-0-3-5-0-3-5-0-3-5-0-3-5-0-3-5-0-3-5-------------|

-------------------------------------------------|
-------------------------------------------------|
-------------------------------------------------|
-0-3-5-0-3-5-0-3-5-0-3-5-0-3-5-0-3-5-------------|
-0-3-5-0-3-5-0-3-5-0-3-5-0-3-5-0-3-52-----------|
-0-3-5-0-3-5-0-3-5-0-3-5-0-3-5-0-3-5-------------|

---------------------------------------------------------|
---------------------------------------------------------|
---------------------------------------------------------|
-0-3-5-0-3-5-0-3-5-0-3-5-0-3-5-0-3-5----00--------------|
-0-3-5-0-3-5-0-3-5-0-3-5-0-3-5-0-3-5-00----------------|
-0-3-5-0-3-5-0-3-5-0-3-5-0-3-5-0-3-5----00--------------|

VERSE 1
Sons of bucther
Razors
Tab by Sol Petrelli
c tuning

The bloody flesh I rape
-------------------------------------------------|
-------------------------------------------------|
-------------------------------------------------|
-0-3-5-0-3-5-0-3-5-0-3-5-0-3-5-0-3-5-------------|
-0-3-5-0-3-5-0-3-5-0-3-5-0-3-5-0-3-55-----------|
-0-3-5-0-3-5-0-3-5-0-3-5-0-3-5-0-3-5-------------|
The trolls are all awake now
-------------------------------------------------------------|
-------------------------------------------------------------|
-------------------------------------------------------------|
-0-3-5-0-3-5-0-3-5-0-3-5-0-3-5-0-3-5-------1-1-1-1-----------|
-0-3-5-0-3-5-0-3-5-0-3-5-0-3-5-0-3-55-----1-1-1-1-----------|
-0-3-5-0-3-5-0-3-5-0-3-5-0-3-5-0-3-5-------1-1-1-1-----------|
I cast you back to hell
-------------------------------------------------|
-------------------------------------------------|
-------------------------------------------------|
-0-3-5-0-3-5-0-3-5-0-3-5-0-3-5-0-3-5-------------|
-0-3-5-0-3-5-0-3-5-0-3-5-0-3-5-0-3-55-----------|
-0-3-5-0-3-5-0-3-5-0-3-5-0-3-5-0-3-5-------------|
Oh minions of Satan
[ Tab from: http://www.guitaretab.com/s/sons-of-butcher/97058.html ]
-------------------------------------------------------------|
-------------------------------------------------------------|
-------------------------------------------------------------|
-0-3-5-0-3-5-0-3-5-0-3-5-0-3-5-0-3-5-------1-1-1-1-----------|
-0-3-5-0-3-5-0-3-5-0-3-5-0-3-5-0-3-55--1-1-1-1--------------|
-0-3-5-0-3-5-0-3-5-0-3-5-0-3-5-0-3-5-------1-1-1-1-----------|

VERSE 2 LYRICS
Oh god of haunted lamb, I want to chew off your hand
Spit poison in the gash, oh how I love you satan


PRE CHORUS
Raping your face, raping your face
With demonic lust
----------------------------------------------------------------------------|
----------------------------------------------------------------------------|
----------------------------------------------------------------------------|
-0-0-0-0-0-0-0-0-0-0-0-0-0-0-0-0-8-8-8-8-8-8-8-8-1-1-1-1-1-1-1-1----5-5-5-5-|
-0-0-0-0-0-0-0-0-0-0-0-0-0-0-0-0-8-8-8-8-8-8-8-8-1-1-1-1-1-1-1-1----5-5-5-5-|
-0-0-0-0-0-0-0-0-0-0-0-0-0-0-0-0-8-8-8-8-8-8-8-8-1-1-1-1-1-1-1-1----5-5-5-5-|
Chewing the guts, chewing the guts
Of the bloody shell
----------------------------------------------------------------------------|
----------------------------------------------------------------------------|
----------------------------------------------------------------------------|
-0-0-0-0-0-0-0-0-0-0-0-0-0-0-0-0-8-8-8-8-8-8-8-8-1-1-1-1-1-1-1-1----5-5-5-5-|
-0-0-0-0-0-0-0-0-0-0-0-0-0-0-0-0-8-8-8-8-8-8-8-8-1-1-1-1-1-1-1-1----5-5-5-5-|
-0-0-0-0-0-0-0-0-0-0-0-0-0-0-0-0-8-8-8-8-8-8-8-8-1-1-1-1-1-1-1-1----5-5-5-5-|

PRE CHORUS 2 LYRICS
Skinning the kids, skinning the kids
With demonic lust
Squirting their limbs, squirting their limbs
Of the bloody shell

CHORUS
Land cracks, lava blast
-----------------------------------------------------------------------------|
-----------------------------------------------------------------------------|
-----------------------------------------------------------------------------|
-0-0-12-10-0-6-7-0-3-0---0-0-12-10-0-6-7-0-3-0----8-8-8-8-7-7-7-7------------|
-0-0-12-10-0-6-7-0-3-0---0-0-12-10-0-6-7-0-3-0----8-8-8-8-7-7-7-7------------|
-0-0-12-10-0-6-7-0-3-0---0-0-12-10-0-6-7-0-3-0----8-8-8-8-7-7-7-7------------|
Razors up your ass
-----------------------------------------------------------------------------|
-----------------------------------------------------------------------------|
-----------------------------------------------------------------------------|
-0-0-12-10-0-6-7-0-3-0---0-0-12-10-0-6-7-0-3-0----8-8-8-8-7-7-7-7------------|
-0-0-12-10-0-6-7-0-3-0---0-0-12-10-0-6-7-0-3-0----8-8-8-8-7-7-7-7------------|
-0-0-12-10-0-6-7-0-3-0---0-0-12-10-0-6-7-0-3-0----8-8-8-8-7-7-7-7------------|
Related for Razors tab