Song name
# A B C D E F G H I J K L M N O P Q R S T U V W X Y Z

Sons Of Korah - Psalm 3 tab

Standard Tuning

Em/F#: 024000


Riff1:
  Em                              Em
e|-------------------------------|-------------------------------|
B|-------------------------------|-------------------------------|
G|-------0----0------------------|-------0----0------------------|
D|---------------4----4-2----2---|---------------4----4-2----2---|
A|-----------------------------2-|-----------------------------2-|
E|--0--0----0-------0------0-----|--0--0----0-------0------0-----|

  A                               Em         
e|-------------------------------|-------------------------------|
B|-------------------------------|-------------------------------|
G|-------2----2-0----0-----------|-------------------------------|
D|---------------------4--2-0----|-------2-----0----2----0-------|
A|--0--0----0------0-------------|-------------------------2-----|
E|-------------------------------|--0--0----0-----0----0---------|


Riff1
Lord, how many are my foes Lord!
Many rise against me!
They say of me God will never
God will not deliver him


E             G
But You are a shield around me
B           Em
You lift my head
E            G
And You will honour me
B           G
You lift my head


Riff1
I cry to the Lord, He answers 
from his holy hill
I lie down and sleep and wake for 
God, he will sustain me


E          G
I will not be affraid 
B               Em
of ten thousand men
E           G
drawn up on every side, 
B          Em
you are my shield


E
Arise, Lord 
G
Deliver 
A       E
Deliver me!
       

Em       Em	 Em	 Em/F#
Strike all my enemies on the jaw
break the teeth of the wicked one


E             G
From the Lord comes deliverance
A                  E
May your blessings fall
Tap to rate this tab
 
# A B C D E F G H I J K L M N O P Q R S T U V W X Y Z