Song name
# A B C D E F G H I J K L M N O P Q R S T U V W X Y Z

Sons Of Mercury - Lights Down tab

Hi there, this is Lights Down by Sons of Mercury, there is a few variations
on how to play the verse and the chorus but im 100% sure its correct. Where
there is two tabs joined by the ends the top tab is one variation and the
bottom tab the other (just like two guitars). Credit goes out to my guitar
teacher for helping me with this tab.

Copyright  Sons of Mercury, Grove Studios.

Tuning:Standard (EADGBe)


INTRO (E, F# G# barchords)
e|-----------|------------|------------|------------|------------|------------|------------|--------|
B|5-5-5------|-7-7-7------|-9-9-9------|-7-7-7------|-5-5-5-5----|-7-7-7-7----|-9-9-9-9----|-7-7-7-7|
G|4-4-4------|-6-6-6------|-8-8-8------|-6-6-6------|-4-4-4-4----|-6-6-6-6----|-8-8-8-8----|-6-6-6-6|
D|2-2-2------|-4-4-4------|-6-6-6------|-4-4-4------|-2-2-2-2----|-4-4-4-4----|-6-6-6-6----|-4-4-4-4|
A|-----------|------------|------------|------------|------------|------------|------------|--------|
E|-----------|------------|------------|------------|------------|------------|------------|--------|
                                                  Yeah          Woah ah woah.......       Yeah
CHORUS 1
e|-----------|------------|------------|------------|------------|------------|------------|--------|
B|5-5-5-5----|-7-7-7-7----|-9-9-9-9----|-7-7-7-7----|-5-5-5-5----|-7-7-7-7----|-9-9-9-9----|-7-7-7-7|
G|4-4-4-4----|-6-6-6-6----|-8-8-8-8----|-6-6-6-6----|-4-4-4-4----|-6-6-6-6----|-8-8-8-8----|-6-6-6-6|
D|2-2-2-2----|-4-4-4-4----|-6-6-6-6----|-4-4-4-4----|-2-2-2-2----|-4-4-4-4----|-6-6-6-6----|-4-4-4-4|
A|-----------|------------|------------|------------|------------|------------|------------|--------|
E|-----------|------------|------------|------------|------------|------------|------------|--------|
So turn the lights down baby...                       So turn the lights down....

INTERLUDE 1 x2
e|-----------------|-----------------|-------------------------|-----------------|
B|-5-5-5-5-5-5-5-5-|-7-7-7-7-9-9-9-9-|-12-12-12-12-12-12-12-12-|-9-9-9---7--9----|
G|-4-4-4-4-4-4-4-4-|-6-6-6-6-8-8-8-8-|-11-11-11-11-11-11-11-11-|-8-8-8---6--8----|
D|-2-2-2-2-2-2-2-2-|-4-4-4-4-6-6-6-6-|-9--9--9--9--9--9--9--9--|-6-6-6---4--6----|
A|-----------------|-----------------|-------------------------|-----------------|
E|-----------------|-----------------|-------------------------|-----------------|

VERSE
e|-----------------|-----------------|-----------------|-----------------|
B|-----------------|-----------------|-----------------|-----------------|
G|-----------------|-----------------|-----------------|-----------------|
D|-2-2-2-2-2-2-2-2-|-4-4-4-4-4-4-4-4-|-6-6-6-6-6-6-6-6-|-4-4-4-4-4-4-4-4-|
A|-2-2-2-2-2-2-2-2-|-4-4-4-4-4-4-4-4-|-6-6-6-6-6-6-6-6-|-4-4-4-4-4-4-4-4-|
E|-0-0-0-0-0-0-0-0-|-2-2-2-2-2-2-2-2-|-4-4-4-4-4-4-4-4-|-2-2-2-2-2-2-2-2-|
   . . . . . . . .   . . . . . . . .   . . . . . . . .   . . . . . . . . 
So turn the lights down....

e|-----------------|-----------------|-----------------|-----------------|
B|-----------------|-----------------|-----------------|-----------------|
G|-----------------|-----------------|-----------------|-----------------|
D|--2---2---2---2--|--4---4---4---4--|--6---6---6---6--|-4-4-4-4-4-4-4-4-|
A|--2---2---2---2--|--4---4---4---4--|--6---6---6---6--|-4-4-4-4-4-4-4-4-|
E|--0---0---0---0--|--2---2---2---2--|--4---4---4---4--|-2-2-2-2-2-2-2-2-|
Your caught in the trauma...                             . . . . . . . .

CHORUS 2
e|-----------------|-----------------|-------------------------|-----------------|
B|-5-5-5-5-5-5-5-5-|-7-7-7-7-9-9-9-9-|-12-12-12-12-12-12-12-12-|-9-9-9---7--9----|
G|-4-4-4-4-4-4-4-4-|-6-6-6-6-8-8-8-8-|-11-11-11-11-11-11-11-11-|-8-8-8---6--8----|
D|-2-2-2-2-2-2-2-2-|-4-4-4-4-6-6-6-6-|-9--9--9--9--9--9--9--9--|-6-6-6---4--6----|\
A|-----------------|-----------------|-------------------------|-----------------| \
E|-----------------|-----------------|-------------------------|-----------------|  \
 |                                                                               |   \
 |                                                                               |    }x2
e|-----------------|-----------------|-----------------|-------------------------|   / 
B|-----------------|-----------------|-----------------|-------------------------|  /
G|-----------------|-----------------|-4-4-4-4-4-4-4-4-|-------------------------| /
D|-2-2-2-2-2-2-2-2-|-4-4-4-4-6-6-6-6-|-4-4-4-4-4-4-4-4-|-6-6-6---4--6------------|/
A|-2-2-2-2-2-2-2-2-|-4-4-4-4-6-6-6-6-|-2-2-2-2-2-2-2-2-|-6-6-6---4--6------------|
E|-0-0-0-0-0-0-0-0-|-2-2-2-2-4-4-4-4-|-----------------|-4-4-4---2--4------------|


VERSE AGAIN


BRIDGE 
e|-------------6~--|-------------6~--|-------------6~--|------------------|
B|-----7~----------|-----7~----------|-----7~----------|-----7~-----------|
G|-----------------|-----------------|-----------------|------------------|
D|-6~------8~------|-6~------8~------|-6~------8~------|-6~-----4-4-4-4-4-|
A|-----------------|-----------------|-----------------|--------4-4-4-4-4-|
E|-----------------|-----------------|-----------------|--------2-2-2-2-2-|

CHORUS AGAIN

BRIDGE 2 (Bottom tab comes in after top tab plays twice)
e|-----------------|---------6-6-6-6-|-----------------|------------------|**|
B|---------7-7-7-7-|-----------------|-7-7-7-7-7-7-7-7-|-7-7-7-7-5-5-4-4--|  |
G|-----------------|-----------------|-----------------|------------------|  |x2
D|-6-6-6-6---------|-8-8-8-8---------|-----------------|------------------|  |   \
A|-----------------|-----------------|-----------------|------------------|  |    \
E|-----------------|-----------------|-----------------|------------------|**|     \
 |                                                                        |         \
 |                                                                        |          }x4 (final time
e|-----------------|-----------------|-----------------|------------------|         / last bar of
B|-----------------|-----------------|-----------------|------------------|        / bottom tab
G|-----------------|-----------------|-----------------|------------------|       / is not played)
D|-2-2-2-2-2-2-2-2-|-4-4-4-4-4-4-4-4-|-6-6-6-6-6-6-6-6-|-4-4-4-4-4-4-4-4--|      /
A|-2-2-2-2-2-2-2-2-|-4-4-4-4-4-4-4-4-|-6-6-6-6-6-6-6-6-|-4-4-4-4-4-4-4-4--|
E|-0-0-0-0-0-0-0-0-|-2-2-2-2-2-2-2-2-|-4-4-4-4-4-4-4-4-|-2-2-2-2-2-2-2-2--|

CHORUS AGAIN

POST CHORUS
e|------------|------------|------------|------------|
B|-5--5--5--5-|-7--7--7--7-|-9--9--9--9-|-7--7--7--7-|
G|-4--4--4--4-|-6--6--6--6-|-8--8--8--8-|-6--6--6--6-|
D|-2--2--2--2-|-4--4--4--4-|-6--6--6--6-|-4--4--4--4-|
A|------------|------------|------------|------------|
E|------------|------------|------------|------------|

CHORUS AGAIN

That's pretty much the song, listen to how it goes for extra guidance and detail.

************************************
| /   slide up
| \   slide down
| h   hammer-on
| p   pull-off
| ~   vibrato
| +   harmonic
| x   Mute note
| b   Bend
| pb  Pre-bend
| br  Bend release
| pbr Pre-bend release
| brb Bend release bend
************************************

http://www.sonsofmercury.com/
Tap to rate this tab
# A B C D E F G H I J K L M N O P Q R S T U V W X Y Z