Song name
# A B C D E F G H I J K L M N O P Q R S T U V W X Y Z

Sons Of The Sea - Jet Black Crow tab

Band: Sons of the Sea
Album: Sons of the Sea
Song: Jet Black Crow
Tuning: Standard E A D G B E

===========================================================================

Intro
Bass arranged for guitar: F#, G, A
Piano arranged for guitar C#, D, E, A

But all the found moments of bliss come when I look into your eyes
Nothing can compare to this So I'll take my chances
E|-------------------------------------|-------------|---------|
B|------------------------14-15-17-----|-15--14------|--10--0--|
G|---------------------------------14--|---------14--|--11--7--|
D|-------------------------------------|-------------|--11--9--|
A|-------------------------------------|-------------|--9--10--|
E|-2-2-2-2/3-3-3-3-3/5-5-5-5-5-5-5-5---|-------------|---------|


Verse 1
I can only imagine what you think of me
After all of these arrows and violins
A flip of the coin and I'm both sides
E|--0--0--00--00-0-------------------|
B|--3--3--33--33-3-xx-0-00-0--0------|
G|--0--0--00--22-2-xx-1-11-1^2-1^2---|
D|--0--0--00--00-0-xx-2-22-2------2--|
A|--2--2--22-------xx-2-22-2---------|
E|--3--3--33----------0-00-0---------|


Pre Chorus
When I'm around you, it's a lot like a lullaby
Sung by a murderer
You're a jet black crow, deadly and beautiful
E|----------|
B|----------|
G|----------|
D|--7----5--|
A|--7----5--|
E|--5----3--|


Chorus
But all the found moments of bliss come when I look into your eyes 
Nothing can compare to this So I'll take my chances
E|----------|----------|
B|----------|----------|
G|-2--4--6--|--2----4--|
D|-4--5--7--|--4----5--|
A|-4--5--7--|--4----5--|
E|-2--3--5--|--2----3--|


Verse 2 (high notes are played at the end of each line)
I'm up in the air and half a mind about you and me.
Your love's an assassin and your love is protection.
A slip of the tongue moves my insides!
E|--0--0--00--00-0-------------------|--------23--|-----12--|
B|--3--3--33--33-3-xx-0-00-0--0------|--19-22-----|--12-----|
G|--0--0--00--22-2-xx-1-11-1^2-1^2---|------------|---------|
D|--0--0--00--00-0-xx-2-22-2------2--|------------|---------|
A|--2--2--22-------xx-2-22-2---------|------------|---------|
E|--3--3--33----------0-00-0---------|------------|---------|


Pre Chorus
When I'm around you, it's a lot like a lullaby
Sung by a murderer
You're a jet black crow, deadly and beautiful
E|----------|
B|----------|
G|----------|
D|--7----5--|
A|--7----5--|
E|--5----3--|


Chorus
But all the found moments of bliss come when I look into your eyes
Nothing can compare to this So I'll take my chances
E|----------|----------|
B|----------|----------|
G|-2--4--6--|--2----4--|
D|-4--5--7--|--4----5--|
A|-4--5--7--|--4----5--|
E|-2--3--5--|--2----3--|


Break - Intro revisited
E|-----------------------------------|---------17-|---19-22-21---|
B|-------------------17-19--22-21----|-17--19-----|-21--------22-|
G|--------------------------------19-|------------|--------------|
D|-----------------------------------|------------|--------------|
A|-----------------------------------|------------|--------------|
E|-2-2-2-2/3-3-3-3-3/5-5-5-5-5-5-5-5-|------------|--------------|


E|-----------------------------------|------------|
B|-----------------------------------|------------|
G|-----------------------------------|------------|
D|-----------------------------------|------------|
A|-----------------------------------|------------|
E|--8-8-8-8-7-7-7-7-5-5-5-5-5-5-5-5--|--8-3-7-10--|


Outro
The only way out now is in!
And we'll both be mesmerized!
So if you're ready to begin . . . again,
We could take our chances
E|----------|----------|
B|----------|----------|
G|-2--4--6--|--2----4--|
D|-4--5--7--|--4----5--|
A|-4--5--7--|--4----5--|
E|-2--3--5--|--2----3--|

Bass lines arranged for guitar
(similar to the intro, except the final, low bass note is not possible on a standard tuned guitar)
E|-------------|
B|-------------|
G|-------------|
D|--11--12--7--|
A|--9---10--5--|
E|-------------|
Tap to rate this tab
# A B C D E F G H I J K L M N O P Q R S T U V W X Y Z