Song name
# A B C D E F G H I J K L M N O P Q R S T U V W X Y Z

Sons Of Thunder - Jesus Viking tab

 Song:Jesus Viking	
  http://www.sonsofthunder.co.uk/
  Band:Sons Of Thunder
  CD:Load Aim Fire
  Copyright:c2000 C.L. Music Publishing
  Tabbed by Ed Morones
    -Play tab in Sequence unless noted-
    -Tune down 1/2 step-

    INTRO:
    RIFF 1 play with RIFF 2 2x's
  e-------------------------------------(12)--|
  B-------------------------------------(12)--|
  G------3-3------3----------3----------(12)--|
  D----1---1--------1--sl.-3------------------|
  A--1-----1--1-2-----2-/4--------------------|
  E-------------------------------------------|


    RIFF 2
  e------------------------------------------------------------|
  B------------------------------------------------------------|
  G--20-18-16-15-13-13-15-15-13h15p13-11-9h11p9-8-sl.---sl.----|
  D-----------------------------------------------/9~~~9/11~~~-|
  A------------------------------------------------------------|
  E------------------------------------------------------------|


    RIFF 3-play 4x's
  e---------------------------------------------|
  B---------------------------------------------|
  G---------------------------------------------|
  D--2-2-------2-2--sl---2-2--sl----sl----sl----|
  A--2-2-3/5-5-2-2-5/7-7-2-2-3/5-5-5/7-7-7/9-9--|
  E--0-0-1/3-3-0-0-3/5-5-0-0-1/3-3-3/5-5-5/7-7--|

   VERSE:
    RIFF 4-play 6x's
  e-----------------------------------|
  B-----------------------------------|
  G-----------------------------------|
  D--2--------------------------------|
  A--2--p.m.----p.m.-5-p.m.-7-p.m.-9--|
  E--0--0-0--1~~1-1--3-3-3--5-5-5--7--|
     -Play RIFF 3 2x's for CHORUS-
     -Play RIFF 4 4x's for 2nd VERSE-
     -Play RIFF 3 2x's for CHORUS-
    BRIDGE:RIFF 5 tuning Drop-D 
  e---------------------------------|----------------------------|
  B---------------------------------|----------------------------|
  G*-------------------------------*|----------------------------|
  D*-----------------------------4-*|--------------------------4-|
  A--2--1--1-1--2--1--1-1--2--1--4--|-2--1--1-1--2--1--1-1-2-1-4-|
  D--2--1--1-1--2--1--1-1--2--1-----|-2--1--1-1--2--1--1-1-2-1---|
  






  -In BRIDGE section gtr 2 plays weird noises during breaks by hitting
    strings with a drum stick and allowing it to bounce on strings.If
    you want to play it just experiment with it to try to emulate                 
    sound.Have fun with it.-



  e---------------------------------------------------|
  B---------------------------------------------------|
  G----------------------------------------p.m....----|
  D--p.m....----------------------------4--------4----|
  A--0-1-0-1-2--1--1-1--2--1--1-1--2--1-4--0-1-2-4-1--|
  E--0-1-0-1-2--1--1-1--2--1--1-1--2--1----0-1-2---1--|


   INTERLUDE:
    RIFF 5-Play 4x's violin arranged for gtr.
  e--14---------------------sl----------------------sl-|
  B-----14-12-11-9-12-11-9-7/9-12-9-11-7-9-12-11-9-7/9-|
  G----------------------------------------------------|
  D----------------------------------------------------|
  A----------------------------------------------------|
  E----------------------------------------------------|
   -You can copy the sound of the violin using a little delay.Then
    play notes with hammer-ons as you rotate volume knob on and off.
    This is a cool effect,but takes practice.-
   SOLO: Rhythym plays RIFF 4 2x's
  e-----------------------------------------------------|
  B--14b16r14-12-11-------11------sl-----------6h9b11~~~|
  G-----------------11h13----13-11\8~~------6h8---------|
  D--------------------------------------6h8------------|
  A-----------------------------------6h8---------------|
  E-----------------------------------------------------|




  e--6-9-6-9----------------------|
  B----------14b15-14b15-12-14b16-|
  G-------------------------------|
  D-------------------------------|
  A-------------------------------|
  E-------------------------------|
   -Play Riff 4 4x's for 3rd VERSE-
   -Play RIFF 3 8x's for CHORUS and fade out-


  Any Q's or com's email Ed at
  5150rocker@sbcglobal.net
Tap to rate this tab
# A B C D E F G H I J K L M N O P Q R S T U V W X Y Z