Guitaretab - guitar tabs
Song name
# A B C D E F G H I J K L M N O P Q R S T U V W X Y Z

Sonu Nigam - Mere Dil Mein Rehne Wali tab

Sonu nigam  Mere dil mein rehne wali


By Sanjeev George and Thomas George
Sanjeevgeorge123@yahoo.co.in

Intro:

G       Em       Am      D              Played twice

Then
   Riff A
e|--------------------------10--8-7-------------------------------------------|
B|----7-7v-----8p7---7-8------------------------------------------------------|
G|-----------------9----------------------------------------------------------|
D|----------------------------------------------------------------------------|
A|----------------------------------------------------------------------------|
E|----------------------------------------------------------------------------|


e|--------------------------10--8-7-------------------------------------------|
B|----7-7v-----8p7---7-8----10--8-8-------------------------------------------|
G|-----------------9----------------------------------------------------------|
D|----------------------------------------------------------------------------|
A|----------------------------------------------------------------------------|
E|----------------------------------------------------------------------------|


    G                Am         G          Am
Mere dil mein rehne wali mujhe apna kehne wali 
    G                Am         G          Am
Mere dil mein rehne wali mujhe apna kehne wali 
    G          C
Dhadkanon ka ehsaas tu hai
    G          C
Har ek lamha mere paas tu hai
   Am                 
Tere seeva na chahat hai koi
  D7           G 
Na hain koi armaan

Chorus:
         G        Am        D7
O meri jaan meri jaan meri jaan
    G         Csus2       G
Meri jaan meri jaan meri jaan


Played at the end of each chorus (Meri jaan, meri jaan, meri jaan)with Electric guitar

e|---------------7-----------14h15-------|
B|---7h8---------7h8---------14----------|
G|---7-----------------------------------|
D|---------------------------------------|
A|---------------------------------------|
E|---------------------------------------|

Solo Not tabbed
Chords for solo  G C Am G
                 C Am Bm G

Acoustic Arpeggios

         G          Bm         Am
e|---------------------------------0--------------------|
B|--------3----------3---------1-----1---1--------------|
G|------4---4------4---4-----2---2-----2----------------|
D|----5----------4--------------------------------------|
A|-------------------------0----------------------------|
E|------------------------------------------------------|
[ Tab from: http://www.guitaretab.com/s/sonu-nigam/104069.html ]
        C           D           G
e|--------------------------------3-----------|
B|----------1-------3---------------3---------|
G|--0---------0---2---2-----------------------|
D|-------2------0-----------------------------|
A|-----3-----------------------2--------------|
E|--------------------------3-----------------|
           

Stanza 1
        G        Am          C         G
Hmm bahut chahane laga hoon meri jaan tujhe
       G          Am        D         G
Haan ke ab aazma rahi hain mohabbat mujhe
  G            C         D
Kaisa hain yeh mera deewanapan
   C            Am      G
Kaisa hain yeh mera deewanapan

Verse 2
  G             Am
Har taraf hain tera nazara
 G               Am
Tujhko paya to dil pukara
 Am         
Tere seeva na chahat hain koi
  D7         G
Na hain koi armaan


Chorus: (same chords)
O meri jaan meri jaan meri jaan meri jaan
Meri jaan meri jaan meri jaan meri jaan meri jaan

Acoustic Arpeggios played before stanza 2

                      G                                Em
e|--------------2-------------------0------------|
B|---------3------2-------------------0----------|
G|-----------4------3----------0--------0--------|--------|
D|------5-------------4------2---2--------2------|        | 
A|----5--------------------2---------------------|        |
E|-----------------------------------------------|        |
                                                          |
                                                          |-----played twice
                    C                                D    | 
e|------------0-------------------2--------------|        |
B|--------1-----1------------3------3------------|        |
G|----------0-----0--------2---2------2----------|        |
D|-----2------------2----0--------------0--------|--------|
A|---3-------------------------------------------|
E|-----------------------------------------------|

Then play this with an Electric guitar playing riff A
 

          D                   G
e|-----------2---------------------3-------------|
B|-------3-----3---------------------3-----------|
G|-----2---2-----2------------3--------4---------|
D|---0-------------0------------4--------5-------|
A|-------------------------5---------------------|
E|-----------------------5-----------------------|

Stanza 2: (Exactly the same chords as stanza 1)

Larazte labon se tera woh kehna sanam
Ho mere saath saath har pal tu rehna sanam
Tere bin mujhe ab nahi jeena - 2

Verse 3 (same chords as the other verses)
Kis janam ka yeh silsila hai
Tu mili to sab kuch mila hai
Tere siva na chahat hai koi
Na hain koi armaan

Chorus
O meri jaan meri jaan meri jaan meri jaan
Meri jaan meri jaan meri jaan meri jaan meri jaan


Verse 1
Mere dil mein rehne wali mujhe apna kehne wali 
Mere dil mein rehne wali mujhe apna kehne wali
Dhadkanon ka ehsaas tu hai
Har ek lamha mere paas tu hai
Tere siva na chahat hai koi
Na hain koi armaan


O meri jaan o meri jaan meri jaan o meri jaan
Meri jaan meri jaan meri jaan meri jaan meri jaan
 
and thats all.


Related for Mere Dil Mein Rehne Wali tab