Song name
# A B C D E F G H I J K L M N O P Q R S T U V W X Y Z

Sonu Nigam - Tu Har Pal Aane Lagi Hai tab

Sonu Nigam -  Tu Har Pal Aane Lagi Hai

By Sanjeev George and Thomas George
Sanjeevgeorge123@yahoo.co.in


Will sound nice with 2 guitars

Intro : Dm   Bb   C   Dm
 
Play  Dm  C  Bb  A  Dm
Then  Dm  Bb  C  Dm       with this tab below

e|-------4h5---5h6p5---------------------2/3---3h5p3-------------------|
B|-------------------8--5-6-/8-----------------------6-3-5-5/6---------|
G|----7-----------------------------4/5--------------------------------|
D|---------------------------------------------------------------------|
A|---------------------------------------------------------------------|
E|---------------------------------------------------------------------|

e|--------------------------------------------------------|
B|---6-5---------------5/6---6h8p6------------------------|
G|-------7-5-----------------------9-6-7-7/9v-------------|
D|-----------8---7/8--------------------------------------|
A|--------------------------------------------------------|
E|--------------------------------------------------------|


e|---------------------------5/12-12\10-10v-------------|
B|---------------5------5-6-----------------------------|
G|----------6-7-----6-7---------------------------------|
D|-----5/7----------------------------------------------|
A|------------------------------------------------------|
E|------------------------------------------------------|

Then    Dm  Bb   C   Dm

This is played before verse 1 below and also before stanza 2

e|---------------------------------------|
B|---5h6p5---5---5h6p5-5--5--------------|  twice
G|---------7----------------7------------|
D|----------------------------7----------|
A|---------------------------------------|
E|---------------------------------------|


Verse 

  Dm                       Bb
Tu har pal aane lagi hain nazar
   C        Dm
Deewanapan is kadar
   Dm                       Bb
Mein aksar darta hoon yeh sochkar
   C        Dm
Deewanapan is kadar


chorus

 A
Yeh kaisa tera pyaar hain 
 A              Gm     Dm
Yeh kaisa tera pyaar hain 
 A
Yeh kaisa tera pyaar hain 
 A
Yeh kaisa tera pyaar hain 
 A              
Yeh kaisa tera pyaar hain 
 A              Gm     Dm
Yeh kaisa tera pyaar hain 

verse
Tu har pal aane lagi hain nazar
Deewanapan is kadar
Mein aksar darta hoon yeh sochkar
Deewanapan is kadar

Solo 

e|---------10---12h13p12--10-------------------------------------------|
B|---8/10---------------------10-11/13\1111v----11p10------13---------|
G|------------------------------------------------------12-------------|
D|---------------------------------------------------------------------|
A|---------------------------------------------------------------------|
E|---------------------------------------------------------------------|

e|--10h12p10--------------------------------------------------|
B|-------------13----10h11p10-10---1oh12p10-------------------|
G|----------------12------------------------12-10\9-----------|
D|---------------------------------------------------12v------|
A|------------------------------------------------------------|
E|------------------------------------------------------------|

Stanza 1

 Dm
Nadaan shayad hua hain yeh dil
 Gm           Dm  A  Dm
Maane na kyun baat meri
  Dm
Jo chahata hai woh kar jaata hai
  Gm            Dm  A  Dm
Jab yaad aati hai teri

         Dm            A          Gm      Dm
Yun to kabhi pehle na thi haalat meri humsafar

Verse(same chords but with the licks)
Tu har pal aane lagi hain nazar
Deewanapan is kadar
Mein aksar darta hoon yeh sochkar
Deewanapan is kadar

Chorus(exactly same chords but with licks tabbed below)
Yeh kaisa tera pyaar hain.6 times
Tu har pal aane lagi hain nazar
Deewanapan is kadar

Play Dm  Gm  C  Dm twice

Stanza 2 (same chords as stanza 1)
Har saans mein ghulti khushboo hai tu
Hota hai mehsoos mujhko
Us pal meri jaan nikalne lagi
Jis pal mein dekhoon na tujhko
Khwaabon mein tu yaadon mein tu
Aankhon mein tu tu hi tu

Verse (with the licks)
Tu har pal aane lagi hain nazar
Deewanapan is kadar
Mein aksar darta hoon yeh sochkar
Deewanapan is kadar

Chorus(with the licks at correct timing)
Yeh kaisa tera pyaar hai..6 times

Verse
Tu har pal aane lagi hain nazar
Deewanapan is kadar
Mein aksar darta hoon yeh sochkar
Deewanapan is kadar


Licks played during the 2nd time chorus

e|-------------------------------------------13-12---------------------------|
B|---11-10--------------------------10-11-13-------10---13-11----------------|
G|---------1210h12p10\910/12--------------------------------12-------------|
D|---------------------------------------------------------------------------|
A|---------------------------------------------------------------------------|
E|---------------------------------------------------------------------------|

e|----------------------|
B|----------------------|
G|-------6-7-7/9v-------|
D|---5/7----------------|
A|----------------------|
E|----------------------|

e|-----------------------------------------------|
B|----9h10-9-10-11-10-9h10p9---------------------|
G|----------------------------109h10p9----------|
D|-----------------------------------------------|
A|-----------------------------------------------|
E|-----------------------------------------------|


     .Yeh kaisa tera pyaar hai..
e|--------------------------------------|
B|---10h11p10---------------------------|
G|------------12-10-910p9--------------
D|-------------------------12-----------|
A|--------------------------------------|
E|--------------------------------------|


   Slight change in the above lick when it again comes to Yeh kaisa tera pyaar hai
e|-----------------------------------------|
B|--10-11-10-------------------------------|
G|-----------12--10-10\9-------------------|
D|-----------------------12----------------|
A|-----------------------------------------|
E|-----------------------------------------|

And thats it .Hope its right. Please rate it.
Tap to rate this tab
# A B C D E F G H I J K L M N O P Q R S T U V W X Y Z