Song name
# A B C D E F G H I J K L M N O P Q R S T U V W X Y Z

Sonu Nigam - Jaane Kyun Main tab

                  Sonu nigam- Jaane Kyon Main Tujhko 
	
By Sanjeev George & Thomas George
Contact at sanjeevgeorge123@yahoo.co.in

| b  bend
| r  release bend
| /  slide up 
| \  slide down
| h  hammer-on
| p  pull-off
| ~  hold note ands let ring
| v  vibrato
| .  play and mute with fretting hand


You can use one guitar to play the solos and another to play the chords

e|-------------------------------------12h13p12h13p12----12-13p12-13p12-------|
B|-12h13—12h13—p12----12-13-12h13v--------------------15----------------15v---|
G|-----------------14---------------------------------------------------------|
D|----------------------------------------------------------------------------|
A|----------------------------------------------------------------------------|
E|----------------------------------------------------------------------------|

e|-----------------------------------------------------------|
B|-12h13-p12----12-13p12-------------------------------------|
G|-----------14----------14-14—16p14-13----------------------|
D|--------------------------------------14-------------------|
A|-----------------------------------------14/15\14v---------|
E|-----------------------------------------------------------|



Intro

Am   Dm   Am   E

  Am      E       C
Aa haa, aa haa, aa haa

  Dm      E        Am
La la, la la, la la la



Verse 1

Am          E     C    Dm        E     Am
Jaane kyun main tujhko din raat sochta hoon


Am          E     C    Dm       E     Am
Jaane kyun main teri har baat sochta hoon


  G         Am        G      Am
Yeh paagalpan hai yaa pyaar hai

    G        Am     G    Am
Yeh kaisa mujhpe khumar hai


Am          E     C     Dm       E     Am
Har pal ho tujhse meri mulaqat sochta hoon


Am          E     C       Dm      E      Am
Jaane kyun main tujhko din raat sochta hoon


For keyboard solo:  Am   Dm   G   Am

Am   Dm   Am   E


Stanza 1

  C                  G      Am
Tere khayalon mein khoye rehna

  Bm          Dm
Mera kaam ab yehi hai

  C                G      Dm
Yeh jaan le tu ki pagal dil ka

  Bm          Dm
Paigham ab yehi hai 

  Bm          Am
paigham ab yehi hai



Verse 2 (same chords as verse 1)
Ho jaye shaayad koi karamat sochta hoon
Jaane kyun main tujhko din raat sochta hoon
Jaane kyun main teri har baat sochta hoon


Solo   Played  on   Am   Dm   G   Am

e|--------------------------------------------------------------------------------|
B|---------10------10---------------------------------8------8--------------------|
G|---7/9------9v------9v—9h10p9-7-9-9/10v---10p9\7v-----7v-----7v-7h9p7----7-7/9--|
D|----------------------------------------------------------------------10--------|
A|--------------------------------------------------------------------------------|
E|--------------------------------------------------------------------------------|

Am   Dm   G   Am

Bb   Bm   E   Am


Stanza 2 (same chords as stanza 1)
Milne ko aksar mile tu mujhse
Phir bhi hain faasle kyun
Dil ki lagi ne banaye hain yeh 
Benaam silsile kyun benaam silsile kyun


Verse 3(same chords as verses 1 & 2)
badlenge kaise ab yeh haalat sochta hoon
Jaane kyun main tujhko din raat sochta hoon
Jaane kyun main teri har baat sochta hoon
Yeh paagalpan hai yaa pyaar hai
Yeh kaisa mujhpe khumar hai
Har pal ho tujhse meri mulaqat sochta hoon
Jaane kyun main tujhko din raat sochta hoon








Outro Solo

Guitar 1

e|------------------7---7-----8v-----------------------------------12-12h13p12----|
B|------10---10----------------------11/12—12/13v---12—10h12p10/8--------------14-|
G|--7/9---------7/9-------7/9-----------------------------------------------------|
D|--------------------------------------------------------------------------------|
A|--------------------------------------------------------------------------------|
E|--------------------------------------------------------------------------------|

Guitar 2

e|----------------------------------------------------------------------|
B|---------------------15b17r15v----------------13-12-------------------|
G|--12h14-----------14-----------------------14-------14----------------|
D|--------14---1214----------------------/14-------------14-12----------|
A|----------------------------------------------------------------------|
E|----------------------------------------------------------------------|



Licks played during the song (Listen to the song)

e|-------------12-------------------|
B|--12/13---15----------------------|
G|--11/12---------12-14-------------|
D|----------------------14v---------|
A|----------------------------------|
E|----------------------------------|


e|----8------------------|
B|------10-8-10v---------|
G|--9--------------------|
D|-----------------------|
A|-----------------------|
E|-----------------------|

e|------------------|
B|------------------|
G|--12h14-----------|
D|--------14--------|
A|------------------|
E|------------------|

e|--------------------------|
B|-----------15/17-15v------|
G|--------14----------------|
D|--12/14-------------------|
A|--------------------------|
E|--------------------------|

e|--------------------------------|
B|-----------13-12----------------|
G|--------14-------14-------------|
D|--12/14-------------14-12-------|
A|--------------------------------|
E|--------------------------------|

Please rate


Tap to rate this tab
 
# A B C D E F G H I J K L M N O P Q R S T U V W X Y Z