Song name
# A B C D E F G H I J K L M N O P Q R S T U V W X Y Z

Sonu Nigam - Jeena Hai Tere Liye tab

                            Sonu nigam – Jeena hai tere liye
                                   From the album “Yaad”

By Sanjeev George and Thomas George
Contact at SanjeevGeorge123@yahoo.co.in for suggestions, doubts, tab requests,etc.

For the chorus, using fifth chords with distortion will give a rock-feel.

Intro:  Gm   Dm   C   F

Piano part   :  Gm   Dm   C   F

Am F C Dm
Taara ra ra ra raa….. taaraa…….

Verse

Am F        C     Dm
Jeena hain tere liye 

Am F        C     Dm
Marna hain tere liye 

Am F          C    Dm
Mujhko hain yaad sanam

Am F     C      Dm 
Tune jo vaade kiye 

Chorus 1

     Dm          A
Teri yaadein aa gayi
      F      C  Dm 
Mere dil pe cha gayi 
      Dm            A
Tujhe dhundu mein kahaan
      F              C             Dm 
Tu kahan hain meri jaan kahe Dil mera 

Verse(same chords)
Jeena hain tere liye 
Marna hain tere liye 
Mujhko hain yaad sanam 
Tune jo vaade kiye

Chorus 1
Teri yaadein aa
gayi Mere dil pe cha gayi 
Tujhe dhundu mein kaha 
Tu kahan hain meri jaan kahe Dil mera 


Verse
Jeena hain tere liye
Marna hain tere liye 


Guitar part after that

e|----------------------------------------------------------------------------|
B|--------------------------8(+)b10r8p6---8p6---------------------------------|
G|--5---5-5-----5---5-5-----------------------7-7---5---5-5-----5---5-5-------|
D|--5---5-5-----5---5-5-----------------------------5---5-5-----5---5-5-------|
A|--3---3-3-----3---3-3-----------------------------3---3-3-----3---3-3-------|
E|----------------------------------------------------------------------------|


              D5           C#5           C5           G5
Ta ra ra raa ra raa ra ra raa ra raa raa ra ra raa ra raa raa ra ra

Guitar Solo 1

e|----------------------------------------------------------|
B|--13p10h13p10h13p10h13p10—13b15—-13b15r13b15r13b15r~------|
G|----------------------------------------------------------|
D|----------------------------------------------------------|
A|----------------------------------------------------------|
E|----------------------------------------------------------|


e|---------------------------------------------------------------------------------|
B|--13b15r13---13b15r13---13b15r13-----13b15r13-----13p10--------------------------|
G|--------------------------------------------------------12p10--------------------|
D|--------------------------------------------------------------12-12b14—r12-11v---|
A|---------------------------------------------------------------------------------|
E|---------------------------------------------------------------------------------|

e|---------------------------------------8v--------|
B|--10h11---10v-----10\8---------------------------|
G|------------------------10-9v-----9h10-----------|
D|-------------------------------------------------|
A|-------------------------------------------------|
E|-------------------------------------------------|


Stanza 1
  C                        
Tere khayalon mein aajkal 
  Am              Dm
Raaton ko jaaga karoon mein
  C  
Kaise kategi yeh zindagi 
  Am                Dm
Har pal yeh socha karu mein 

Chorus 2 (same chords as chorus 1)
Meri yaadein ro padi 
Jaise saawan ki jhadi 
Toone badla rasta 
Tu kahan hain kya pata 
Juda tu ho gayi 

Verse
Jeena hain tere liye 
Marna hain tere liye

Guitar solo 2

e|--------------------------12v------------------13-13v----12------------|
B|---------15—15v---14--15-------------------------------------13--------|
G|--/14-14------------------------14-15-14-13-14-------------------------|
D|-----------------------------------------------------------------------|
A|-----------------------------------------------------------------------|
E|-----------------------------------------------------------------------|

e|--------------------------------------------10---------10--------------|
B|--15p13-13b15—15p13-15p13-15p13-15p13—13b15------13b15----13p9---------|
G|-----------------------------------------------------------------------|
D|-----------------------------------------------------------------------|
A|-----------------------------------------------------------------------|
E|-----------------------------------------------------------------------|


e|-------10-----------10-----------10-----------10-----------10----------|
B|--13b15---13p9-13b15---13p9-13b15---13p9-13b15---13p9-13b15---13p9-----|
G|-----------------------------------------------------------------------|
D|-----------------------------------------------------------------------|
A|-----------------------------------------------------------------------|
E|-----------------------------------------------------------------------|

e|--13b15—13v---10-13p12p10-10-10h12p10--10------------------------------|
B|-------------------------------------10—13p10--------------------------|
G|----------------------------------------------12b14r12b14r12b14r12-----|
D|-----------------------------------------------------------------------|
A|-----------------------------------------------------------------------|
E|-----------------------------------------------------------------------|

e|----------------------------13-------15b17—15b17r15b17r15b17r15vvvv----|
B|--15-13b15-13b15---15p13--13—15p13-15----------------------------------|
G|------------------------14---------------------------------------------|
D|-----------------------------------------------------------------------|
A|-----------------------------------------------------------------------|
E|-----------------------------------------------------------------------|


Stanza 2 (same chords as stanza 1)
Mujhko mohabbat ke naam pe 
Tujhse mili hain judaai 
Leke tera naam aaj dil 
Dene lagahain duhai 


Chorus 3 (Same chords as other chorus)
Main to tanha reh gaya 
Jabse tera sang gaya 
Mere dil ko tod ke 
Naye rishte jodke Kaha chali gayi 

Verse
Jeena hain tere liye 
Marna hain tere liye 
Mujhko hain yaad sanam 
Tune jo vaade kiye 

Ho ho….. 

Chorus 1
Teri yaadein aa gayi 
Mere dil pe cha gayi 
Tujhe dhundu mein kaha 
Tu kahan hain meri jaan kahe Dil mera 

Teri yaadein aa gayi 
Mere dil pe cha gayi 
Tujhe dhundu mein kaha 
Tu kahan hain meri jaan kahe 
Dil mera Jeena hain tere liye………………

Song ends on Dm

Please rate the tab………..thank you
Tap to rate this tab
# A B C D E F G H I J K L M N O P Q R S T U V W X Y Z