Guitaretab - guitar tabs
Song name
# A B C D E F G H I J K L M N O P Q R S T U V W X Y Z

Sonu Nigam - Hum Na Jaane tab

    Sonu nigam – Hum na jaane
            From Yaad
By Sanjeev George and Thomas George
Contact at SanjeevGeorge123@yahoo.co.in for suggestions, tab requests,etc.


Intro : Bm

e|---------------------------------------------------------7------------------|
B|-7-7-7-7-7-7-7-7h8p7---------------7-7-7-7-7-7--7-7-8-10---10--8-10---------|
G|---------------------9p7-6---7-9--------------------------------------------|
D|---------------------------9------------------------------------------------|
A|----------------------------------------------------------------------------|
E|----------------------------------------------------------------------------|


e|---------------------------------------------------------7----------7-------|
B|-7-7-7-7-7-7-7-7h8p7---------------7-7-7-7-7-7--7-7-8-10---10--8-10---------|
G|---------------------9p7-6---7-9--------------------------------------------|
D|---------------------------9------------------------------------------------|
A|----------------------------------------------------------------------------|
E|----------------------------------------------------------------------------|

Lick in between the ho ho ho part (Listen to song)

e|--------9-10h12-9h10p9----------|
B|-----12----------------12-------|
G|--------------------------------|
D|--------------------------------|
A|--------------------------------|
E|--------------------------------|

Bm        G  A  Bm
Hooo o oooooooo


Verse

 Bm             A                  G            Bm
Hum na jane pyar humko ho gaye kaise

Bm             A                 G            Bm
dilagi mein is kadar dil kho gaye kaise

 Bm             A                  G            Bm
Hum na jane pyar humko ho gaye kaise

Bm             A                 G            Bm
dilagi mein is kadar dil kho gaye kaise

    Em                                   D
ke ab raat din tadap te hain hum

    A                   G         Bm
tumhe yaad kar ke o janam


Solo tabbed for guitar (It may be mandolin actually) : Bm  A  G  Bm
                                                                                     Bm  A  G  Bm
[ Tab from: http://www.guitaretab.com/s/sonu-nigam/110908.html ]
e|-----------------------------------------------------------------------------------|
B|---------------------5-----------------------5-------------------------------------|
G|--4-4-4-4-4-4--4-6-7---7-6-7-------------6-7---7-6-7-------------------------------|
D|-----------------------------7-7-7-7-7-7-------------5-5-5-5-5-5-----------|-------|
A|---------------------------------------------------------------------------|    ---|
E|---------------------------------------------------------------------------|    ---|
                                                                                         
                                                           |---play twice
e|--------------------------------------------------------|                       ---|
B|-------------5---5-5-5---5------------------------------|                       ---|
G|---4-6-7-6-7---7-------7---7-6-7-6-4-3-6-4--------------|                       ---|
D|--------------------------------------------------------|--------------------------|
A|-----------------------------------------------------------------------------------|
E|-----------------------------------------------------------------------------------|


Stanza 1
  Bm      A         D        G
jab jab tumhe dekhe sanam

  Bm      A    G     Bm
ho jaye dil betab sa

  Bm      A         D        G
in ankh mein chupke se kum

  Bm      A    G     Bm
rakhde ke ha ek khab sa

   Bm                  G               A              Bm
yadein tumhare har gadi dil ko chalati hain

   Bm             G                   A              Bm
tanhaeyan aksar humein tadpa ke jaati hain

     F#              G      D                A
tumse ho kar juda ab jiye kaise hum


ho  oo  o oo    oo

Verse
Hum na jane pyar humko ho gaye kaise
dilagi mein is kadar dil kho gaye kaise
ke ab raat din tadap te hain hum
tumhe yaad kar ke o janam

Solo again on mandolin

Stanza 2 (same chords as stanza 1)
is pyar mein hum aj kal
dube rahein shaamo seher
dilki lagi kya kar gayi
humko nahin kutch be khabar

na hosh hai apna humein
na dil pe hai kabu na jane humpe
kardiya hai tumne kya jadoo
dil ye pagal hua aaj apni kasam

Verse again
Hum na jane pyar humko ho gaye kaise
dilagi mein is kadar dil kho gaye kaise
ke ab raat din tadap te hain hum
tumhe yaad kar ke O janam


hoo      o ooo ooo o oo till end

Some licks are not tabbed. will put ‘em later.

Please rate the tab…….thanx
Related for Hum Na Jaane tab
Advertisement will be closed in 10 seconds