Guitaretab - guitar tabs
Song name
# A B C D E F G H I J K L M N O P Q R S T U V W X Y Z

Sonu Nigam - Kal Ho Naa Ho tab

Intro:
E|------------------0-------------------|
B|-1---0-1-0-1-0-1----3-1-0----0----0---|
G|---------------------------2----2-----|
D|--------------------------------------|
A|--------------------------------------|
E|--------------------------------------| x 2

Interlude:
					 Strum C
E|--------------------------|----------------------------|
B|-----1--------------------|------1---------------------|
G|-0-2---2----------0-2-0---|--0-2---2--------3-2-0------|
D|----------------4---------|---------------4------------|
A|--------------------------|----------------------------|
E|--------------------------|----------------------------|
[ Tab from: http://www.guitaretab.com/s/sonu-nigam/79656.html ]
Verse:
E|------------------------------|---------------------------------|
B|-0---0-1-3--------------------|----0---0-1-3--------------------|
G|------------0-0-0---------0---|----------------0-0-0--------2 --|
D|--------------------3-2-3-----|-----------------------3-2-3-----|
A|------------------------------|---------------------------------|
E|------------------------------|---------------------------------|

E|-----1-0h1-------------------|   1-30h1~ -----------------------|
B|-0-1----------33p0-----0-3--|   --------------0---0-1-----------|
G|-----------------------------|   ----------------2---------0h2p0-|
D|-----------------------------|   --------------------------------|
A|-----------------------------|   --------------------------------|
E|-----------------------------|x2 --------------------------------|

Repeat interlude x2
Related for Kal Ho Naa Ho tab