Song name
# A B C D E F G H I J K L M N O P Q R S T U V W X Y Z

Sonu Nigam - Tujhe Choone Ko Dil Kare tab

                           Sonu nigam-Tujhe Choone Ko Dil Kare 

By Sanjeev George and Thomas George
Listen to the song from the album “Jaan” for better understanding of the tab

Symbols used
h= hammer-on
p= pull-off
v=vibrato
s=slide up or down.
Intro
O priya etc etc..
Intro guitar
                                                            Bend gradually
e|---------------------------8-7h8----------------------------------------|
B|-----------8-8v---8-9-10---------8v-----9p8-----------------------------|
G|--------------------------------------------10-10-7-7-8v---10-10b12-----|
D|--8s10-10---------------------------------------------------------------|
A|------------------------------------------------------------------------|
E|------------------------------------------------------------------------|

e|---------------------------------|
B|---8h9p8-------------------------|
G|---------10-8h10p8-7-------------|
D|---------------------10----------|
A|---------------------------------|
E|---------------------------------|


Played during verses

e|--10h11p10-----------------------------|
B|-----------13-11-----------------------|
G|-----------------12-10-10s12v----------|
D|---------------------------------------|
A|---------------------------------------|
E|---------------------------------------|


e|--------------------|
B|--4p3---3-4s8-------|
G|------5-------------|
D|--------------------|
A|--------------------|
E|--------------------|

After ‘ko dil kare’

e|-----------------------------------|
B|--7h8-7-8---7------------6s8v------|
G|----------8---7-8--5-7-8-----------|
D|-----------------------------------|
A|-----------------------------------|
E|-----------------------------------|


Cm Bb Ab Cm

Verse 1

      Cm                   Bb                G   Cm
Tujhe choone ko dil kare, tujhe paane ko dil kare 

      Cm                   Bb                G   Cm
Tujhe choone ko dil kare, tujhe paane ko dil kare 

     Bb       F
Jo baat mere dil mein chhupi

   Bb         F                      G           Cm
Jo baat mere dil mein chhupi woh bataane ko dil kare

    G                       Cm
O priya, o priya, priya, o priya

        Cm                      Bb             Cm
Tujhe choone ko dil kare, tujhe paane ko dil kare

Then Cm Ab Bb Cm


Solo after verse 1 with Cm Ab Bb Cm playing behind

e|-------------8-7-8s10-8---7-8s10-8-7--8-h10p8----------|
B|---------8-7----------------------------------9v-------|
G|-----8-7-----------------------------------------------|
D|-------------------------------------------------------|
A|-------------------------------------------------------|
E|-------------------------------------------------------|

e|----------------------------------------------|
B|--11s13-11----11s13-11------------------------|
G|-----------13----------13-13h15p13-12v--------|
D|----------------------------------------------|
A|----------------------------------------------|
E|----------------------------------------------|

Then Cm G Cm

Stanza 1

  Bb                            F         Ab     Cm           
Yeh roop mehka yeh zulf bikhri yeh dil lubhana tera

   Bb                       F         Ab     Cm           
Madhosh mujhko karne laga hai yun muskurana tera

     G        Cm
Yun muskurana tera


Played during the stanzas

e|----------------------------------|
B|---3h4p3--------------------------|
G|---------5-3-3s5-3----------------|
D|-------------------5-3-3s5v-------|
A|----------------------------------|
E|----------------------------------|

Verse 2

       Cm                     Bb          G  Cm
Teri dhadkan mein aaj to bas jaane ko dil kare

Then Cm Ab Cm

Stanza 2 (same chords as stanza 1)

Jaz baat dil ke phir aaj badle mausam hai rangon bhara
Phoolon ke jaise khilte badan ko aa choom loon main zara
Aa choom loon main zara


Verse 3 (same chords as verse 1)
Tujhe choone ko dil kare, tujhe paane ko dil kare -2
Jo baat mere dil mein chhupi
Jo baat mere dil mein chhupi woh bataane ko dil kare
O priya, o priya................

Contact at sanjeevgeorge123@yahoo.co.in










Tap to rate this tab
# A B C D E F G H I J K L M N O P Q R S T U V W X Y Z