Guitaretab - guitar tabs
Song name
# A B C D E F G H I J K L M N O P Q R S T U V W X Y Z

Sonu Nigam - Jisne Mere Sapne tab

PTL                Sonu nigam Jisne Mere Sapne Mehkaye
By Sanjeev George and Thomas George

Intro guitar

e|------------------------------------------------------------------|
B|--9h10-9-10-10h11--10-9-10-10h11-10-9-9h10------------------------|
G|---------------------------------------------9h10---7-7h9p7-6v----|
D|------------------------------------------------------------------|
A|------------------------------------------------------------------|
E|------------------------------------------------------------------|

                                                       Bend slowly
e|-----------------------------------------------------------------|
B|----------7s8-7-8-8h10--8-7-8-8h10-8-7-7s8-------8--99b---------|
G|---7-9-10------------------------------------10------------------|
D|-----------------------------------------------------------------|
A|-----------------------------------------------------------------|
E|-----------------------------------------------------------------|

  Dm            A
La ra la la la la la
 C               Dm
La ra la la la la la

Verse 1

     Dm                A
Hmm jisne mere sapne mehkaye

   C                    Dm
Mujhse milke woh kyun sharmaye

   Dm                     A
Jaane uske dil mein kya kya ho

   C                    Dm
Usko sochoon to kuch ho jaaye

     Dm        C         Bb      Dm
Na jaane ab kya kare yeh dil ki lagi

    Dm         C            Bb      Dm
Mushkil mein aane lagi hai yeh zindagi

      Dm
Yeh zindagi

Jisne mere sapne mehkaye
Mujhse milke woh kyun sharmaye
Jaane uske dil mein kya kya ho
Usko sochoon to kuch ho jaaye

Played during the verses
e|------------------------------------|
B|---10-10h11p10----------------------|
G|------------------------------------|
D|---------------11-12-12s14----------|
A|------------------------------------|
E|------------------------------------|

e|--10-10s13-12-10-----------------|
B|-----------------13-10v----------|
G|---------------------------------|
D|---------------------------------|
A|---------------------------------|
E|---------------------------------|

e|------------------------------------|
B|--10-10h11-10h11p10-----------------|
G|------------------------------------|
D|--------------------11--------------|
A|----------------------12-12s14------|
E|------------------------------------|


Stanza 1 Solo after verse 1

e|-----------------------------12------------------------|
B|-----------------15-15-13-15----15-13------------------|
G|--------12-12s14----------------------14v--------------|
D|--13s15------------------------------------------------|
A|-------------------------------------------------------|
E|-------------------------------------------------------|

e|--------------------------12-15-12-------------------|
B|-----------------15-15-15----------15-13v------------|
G|--------12-12s14-------------------------------------|
D|--13s15----------------------------------------------|
A|-----------------------------------------------------|
E|-----------------------------------------------------|
[ Tab from: http://www.guitaretab.com/s/sonu-nigam/87652.html ]
e|-----------------------------------------------------------------------------|
B|--13-15h16-17-17-17-17-17-17-17v-----13s15h17-17s18-17s18--17-15h17p15-14----|
G|-----------------------------------------------------------------------------|
D|-----------------------------------------------------------------------------|
A|-----------------------------------------------------------------------------|
E|-----------------------------------------------------------------------------|

e|--12-12h13p12---------------------------------------------|
B|--------------15---15-13-15-13----------------------------|
G|-------------------------------14-12-14-12----------------|
D|-------------------------------------------15-------------|
A|----------------------------------------------------------|
E|----------------------------------------------------------|


    Dm
Yeh dil to ab hain uska
                 Bb
Yeh jaan ab hain uski
    Dm
Woh arzoo jeene ki
                Bb
Mujhe talab hai uski
   G       C
Kahe mera dil
  G     C
Uska khayal
  Bb            Dm
Mujhe raat din sataye

Verse 2(same chords)
Jisne mere sapne mehkaye
Mujhse milke woh kyun sharmaye
Jaane uske dil mein kya kya ho
Usko sochoon to kuch ho jaaye


Stanza 2 (same chords as stanza 1)
Nazar nazar se milkar
Bana hain yeh afsana
Mein jis tarah jalta hoon
Jalenga kya parwaana
Mera haale dil jaane na woh
Koi to usse bataye

Played during the verses last time

e|-------------------------------|
B|--9s10-10-10-10s11-10----------|
G|-------------------------------|
D|-------------------------------|
A|-------------------------------|
E|-------------------------------|

    Quick
e|--12b13r12--------------------------|
B1-----------15-13b15r13--------------|
G|-----------------------14-----------|
D|------------------------------------|
A|------------------------------------|
E|------------------------------------|


Verse 3
Jisne mere sapne mehkaye
Mujhse milke woh kyun sharmaye
Jaane uske dil mein kya kya ho
Usko sochoon to kuch ho jaaye
Na jaane ab kya kare yeh dil ki lagi
Mushkil mein aane lagi hain yeh zindagi
Yeh zindagi

Jisne mere sapne mehkaye
Mujhse milke woh kyun sharmaye
Jaane uske dil mein kya kya ho
Usko sochoon to kuch ho jaaye

Ends with

e|--12h13p12-----------------------------------------------------------------|
B|-----------15-13h15p13-----------------------------------------------------|
G|-----------------------1413s14-13-14-14h15--14-13-14-14h15--14-13-13s14---|
D|---------------------------------------------------------------------------|
A|---------------------------------------------------------------------------|
E|---------------------------------------------------------------------------|


                                                                  Bend slow
e|----------------------------------------------------------------------------|
B|-----------------------------8-7-8-8h10-8-7-8-8h10-8-7-7s8-----8-9-9b-------|
G|--9h10--7-7h9p7-6-----7-9-10--------------------------------10--------------|
D|----------------------------------------------------------------------------|
A|----------------------------------------------------------------------------|
E|----------------------------------------------------------------------------|
Related for Jisne Mere Sapne tab