Song name
# A B C D E F G H I J K L M N O P Q R S T U V W X Y Z

Sophia - Directionless tab

Help us improve GuitareTab! Take a short survey!
Directionless - Sophia

-----------------------------------------------------------------------------------------------------------|
-3------------------3---------------------------0------3------------------0--------------------------------|
-------0-------------------2-------------2-------------------0--------------------2------------------------|
--------------0-------------------0---------------------------------0---------------------0----------------|
------------------------------------------0------------2------------------------------------------0-----2--|
-3--------------------------------------------------------------------------------2------------------------|

(repeat)


I say goodbye to my friends
some I've known for years
this is the first time I've felt the fear
I kiss my baby she's just one month old
I kiss her mother nothing I say can console

I guess I'm losing my direction
I'm losing my direction

step on a train
wave underwater
I don't know if I'll be back again
I try to say 'it'll be ok'
it' s not the first time I've run away

I guess I'm losing my direction
I'm losing my direction


2nd guitar at the end:

-3--2---------------------5----5-h-7-------------3--2------------------5-h-7----5--|
---------3------------3-----------------------------------3------------------------|
------------2---4---------------------------------------------2---4----------------|
-----------------------------------------------------------------------------------|
-----------------------------------------------------------------------------------|
-----------------------------------------------------------------------------------|
(repeat)
Related for Directionless tab