Song name
# A B C D E F G H I J K L M N O P Q R S T U V W X Y Z

Sophie Hunger - Walzer Fur Niemand chords

Highlighted       Show chord diagrams
Verse

   Am          Em          Gm          F
E---------------------------------------------------|
B----1-1---1-1---0-0---0-----3-3---3-3---1-1---1-1--|
G----2-2---2-2---0-0---0-----3-3---3-3---2-2---2-2--|
D----2-2---2-2---2-2---2-----5-5---5-5---3-3---3-3--|
A--0-----0------------------------------------------|
E--------------0-----0---1-3-----3-----1-----1------|

Interlude & End

   D           G            A           A7/G
E----2-2---2-2---5-5---3-3---------------------------|
B----3-3---3-3---0-0---0-0----2-2---2-2---2-2---2-2--|
G----2-2---2-2---0-0---0-0----2-2---2-2---0-0---0-0--|
D--0-----0--------------------2-2---2-2---2-2---2-2--|
A---------------------------0-----0------------------|
E--------------3-----3------------------3-----3------|


Intro
Am Em Gm F 


   Am                     Em 
   Niemand kommt rein und setzt sich hin
       Gm               F
   Den Fuß auf'n Tisch, Hand unter's Kinn
   Am                        Em 
   Niemand isst hungrig mein Frühstücksmenü
   Gm                         F
   Niemand kommt immer zu früh


   Am                     Em
   Niemand, ich habe Geschenke für dich
       Gm                F
   Was wär ich geworden, gäb es dich nicht
           Am              Em
   Meine gesammelten Werke - bitte sehr
Gm                    F
   Alles gehört dir


Interlude [2x]
D G A A7/G


Am Em Gm F 


   Am               Em
   Niemand, niemand kennt mich wie du
Gm                  F
   Unbedingt, ich geb alles zu
   Am                       Em
   Keine Enttäuschung, kein einziges Mal
        Gm                  F
   Aber dir ist eh alles egal


Am                           Em
   Niemand, siehst du's, ich wachse nicht mehr
         Gm                    F
   Meine Hände sind Füße, Niemand, schau her
   Am                      Em
   Bald bin ich nichts und das, was dann bleibt
       Gm              F
   Ist deine Wenigkeit


   D        G       A        A7/G
   Niemand, was, was willst du?
D            G       A  A7/G
   Immer bist du hier
   D        G       A        A7/G
   Niemand, was, was willst du?  
D          
   Von mir?
G 
   Von mir?
       A     A7/G
   Von mir?

Tap to rate this tab
# A B C D E F G H I J K L M N O P Q R S T U V W X Y Z