Song name
# A B C D E F G H I J K L M N O P Q R S T U V W X Y Z

Sophie Hunger - Shape tab

Sophie Hunger - Shape

Standard Tuning

For better understanding of the song structure watch
this incredible cover from Francis Ramond:
http://youtu.be/JucANAqDkwE
Enjoy!

Intro
   Dm
e|--------------------------------------------|
B|--------------------------------------------|
G|------10------10------10------10----10------|
D|----0-------0-------0-------0---------------|
A|--------------------------------------------|
E|-10------10------10------10------10----8h10-|

   Dm
e|-----------------------------------------|
B|-----------------------------------------|
G|------10------10------10------10------10-|
D|----0-------0-------0-------0-------0----|
A|-----------------------------------------|
E|-10------10------10------10------10------|

   Bb                              A
e|-------------------------------|-------------------------------|
B|-------------------------------|-------------------------------|
G|-----7-----7-----7-----7-----7-|-----6-----6-----7-----6-----6-|
D|---0-----0-----0-----0-----0---|---7-----7-----7-----7-----7---|
A|-------------------------------|-------------------------------|
E|-6-----6-----6-----6-----6-----|-5-----5-----5-----5-----5-----|

Verse 1
   Dm                      C                
e|-----------------------|-----------------|
B|-----------------------|-----------------|
G|------10------10----10-|-----9-----9---9-|
D|----0-------0----------|---0-----0-------|
A|-----------------------|-----------------|
E|-10------10------10----|-8-----8-----8---|

   Bb                A
e|-----------------|-----------------|
B|-----------------|-----------------|
G|-----7-----7---7-|-----6-----6---6-|
D|---0-----0-------|---7-----7-------|
A|-----------------|-----------------|
E|-6-----6-----6---|-5-----5-----5---|

Chorus
   Bm                 F                 Gm                F
e|------------------|-----------------|-----------------|-----------------|
B|------------------|-----------------|-----------------|-----------------|
G|-----7-----7----7-|-----2-----2---2-|-----3-----3---3-|-----2-----2---2-|
D|---0-----0--------|---3-----3-------|---0-----0-------|---3-----3-------|
A|------------------|-----------------|-----------------|-----------------|
E|-7-----7-----7----|-1-----1-----1---|-3-----3-----3---|-1-----1-----1---|

   E                 
e|-------------------------------|
B|-------------------------------|
G|-----1-----1-----2-----1-----1-|
D|---2-----2-----2-----2-----2---|
A|-------------------------------|
E|-0-----0-----0-----0-----0-----|

Verse 2
   Dm                      C                   
e|-----------------------|--------------------|
B|------10------10----10-|-----10-----10---10-|
G|------10------10----10-|------9------9----9-|
D|----0-------0----------|---0------0---------|
A|-----------------------|--------------------|
E|-10------10------10----|-8------8------8----|

   Bb                A
e|-----------------|-----------------|
B|-----6-----6---6-|-----5-----5---5-|
G|-----7-----7---7-|-----6-----6---6-|
D|---0-----0-------|---7-----7-------|
A|-----------------|-----------------|
E|-6-----6-----6---|-5-----5-----5---|

Verse 3
Dm C Bb A (Strumming Full Chords)


Lyrics

(They said:)
"Lady or gentleman
You're either or
It's morning, it's evening
It's once or it's more"
What's that name? what's that name?
what's my name again?
when I help up the roof the floor would cave in

Shadow boxing, monologue
and we talk and we talk and we talk
Shadow boxing, monologue
And we walk and we walk and we walk
and we walk and we walk and we walk

Scribbling and coughing a line in the winds
So busy with oiling your sandcastle's hinges
What's that name yeah what's that name yeah
What's my name again?
Stamp on the ground and the ceiling falls in

Shadow boxing, monologue
and we talk and we talk and we talk
Shadow boxing, monologue
only walk only walk only walk
Shadow boxing, monologue
and we clean and we clean and we clean
Shadow boxing, monologue
and we dream and we dream and we dream
and we dream and we dream and we dream
and we dream and we dream and we dream

And we go down to the beggar, to fight for the queen
And it's now and forever, and we are and we seem
And we sculpture a statue to worship and bear
The chaos that's behind the glass of who and what and who and what we are
Tap to rate this tab
# A B C D E F G H I J K L M N O P Q R S T U V W X Y Z