Song name
# A B C D E F G H I J K L M N O P Q R S T U V W X Y Z

Sophie Zelmani - Stay With My Heart tab

Artist: Sophie Zelmani
Title: Stay With My Heart
Album: Love Affair

Intro:

e |----------------|0---------------|
B |------0-------0-|----------------|
G |----0---0---0---|----------------|
D |---2------2-----|----------------|
A |--2-------------|----------------| 
E |0---------------|----------------|

Verses:

   Em (2x)          Am (3x)          D(1x)            Em (2x)
e |----------------|------0-----0---|------2-----2---|----------------|
B |------0-----0---|----1---1-----1-|----3---3-----3-|------0-----0---|
G |----0---0-----0-|---2------2-----|---2------2-----|----0---0-----0-|
D |---2------2-----|--2-------------|0---------------|---2------2-----| usw.
A |--2-------------|0---------------|----------------|--2-------------|
E |0---------------|----------------|----------------|0---------------|

Chord Progression:
Em, Am, D, Em / Fm, Bm, D#, Fm / G#, D#, Fm

[Verse 1:]
Em                                Am
Fell in love with my lover in the morning
                D           Em
Or maybe I fell long before you
                             Am
Now I wonder what lovers are missing
                     D                 Em
and how the name seems to mean passing through

[Verse 2:]
Fm                                 Bm
It's a sad but maybe a self-caused trouble
                  D#              Fm
perhaps I've been sad longer than you
                            Bm
I might have been fooling my lover
                     D#              Fm
You have always been so much more to me

[Chorus:] (2x)
                G#           D#            Fm
I ain't got the heart babe I ain't got the heart
            G#           D#          Fm
Go with the morning I'll stay with my heart

    D#            Fm
I'll stay with my heart 

[Verse 3:]
Fm                           Bm
You know I was sent for that morning
                    D#                  Fm
Or maybe it was the night that threw me out

[Chorus:] (2x)
                G#           D#            Fm
I ain't got the heart babe I ain't got the heart
            G#           D#          Fm
Go with the morning I'll stay with my heart

    D#            Fm
I'll stay with my heart (2x)

Fm G# D# Fm


Corrections and comments are welcome.
Email: niklaswunderlich@gmx.de
Tap to rate this tab
# A B C D E F G H I J K L M N O P Q R S T U V W X Y Z