Song name
# A B C D E F G H I J K L M N O P Q R S T U V W X Y Z

Soreazis - Father Fright tab

Father Fright by Soreazis
From the cd "Confused All Stars"

- www.soreazis.dk -

Main riff:

Em G F#7

Corus riff:

--------------------------------------------------------------------------------------|
--------------------------------------------------------------------------------------|
--------------------------------------------------------------------------------------|
--------------------------------------------------------------------------------------|
----8-------10--------11-------10----10--------8-------10--------11-------10----10----|
--8---8--8------8--8-----8--8------8----8----8---8--8------8--8-----8--8------8----8--|


--------------------------------------------------------------------------------------|
--------------------------------------------------------------------------------------|
--------------------------------------------------------------------------------------|
--------------------------------------------------------------------------------------|
----6--------8---------9--------8-----8--------6--------8---------9--------8-----8----|
--6---6--6------6--6-----6--6------6----6----6---6--6------6--6-----6--6------6----6--|


So young - so fleshy
Hear her silent screams.
Lust over reason
He can't get enough.
It's a classic case of
pure home demolition.
Baby come to daddy,
yeah, Daddy comes in baby

Father Fright comes to her at night
To make sure the breeding is done right...

However she tells him,
he will never stop.
Cuz daddy lacking
sense of the world
"Come closer now child
yeah, I know what you want"

Father fright comes to her......
Tap to rate this tab
# A B C D E F G H I J K L M N O P Q R S T U V W X Y Z