Song name
# A B C D E F G H I J K L M N O P Q R S T U V W X Y Z

Sort Sol - Next Century tab

Tabs By: Tob-Dk

Sort Sol-Next century


Intro+vers

e---0----0----0----0----0----0---0---0---0---0---0-------0---0---0----------|
B-12--12---13---13---10---10---8---8---7---7---7---5---7---7---7---7--------|
G---------------------------------------------------------------------------|
D---------------------------------------------------------------------------|
A---------------------------------------------------------------------------|
E---------------------------------------------------------------------------|

e---0----0----0----0----0----0---0---0----0----0--15-----14--------14---15---|
B-12--12---13---13---10---10---8---8---12---12-------12----12---12---12------|X2
G----------------------------------------------------------------------------|
D----------------------------------------------------------------------------|
A----------------------------------------------------------------------------|
E----------------------------------------------------------------------------|


Chorus

                       E F# G F# (Power Chord )
And in the next century...


It's my first tab so i hope you'll understand it...enjoy!!! :D
Tap to rate this tab
# A B C D E F G H I J K L M N O P Q R S T U V W X Y Z