Song name
# A B C D E F G H I J K L M N O P Q R S T U V W X Y Z

Sortsind - Vandrer Blandt Dodninge tab

myspace.com/sortsind

Artist- Sortsind
Song- Vandrer Blandt Dødninge
Album- Sår


I honestly dont know what tuning im in for this song and i dont feel like checking 
sooo.... you can find it.
well anyways, i think that this is right.

_-tremolo pick



Intro (clean)
|-------------------------------------------------------------------|  x2
|--7-7-4-6-7-6-4-6-7-7-6-4-6-7-6-4-3-3-4-3-6-4-3-0-3-3-6-4-6-4-3-0--|
|---4-4-4-4-4-4-4-4-4-4-4-4-4-4-4-4-3-3-3-3-3-3-3-3-3-3-3-3-3-3-3---|
|-------------------------------------------------------------------|
|-------------------------------------------------------------------|
|-------------------------------------------------------------------|

(distortion)
|-------------------------------------------------------------------|
|--7-7-4-6-7-6-4-6-7-7-6-4-6-7-6-4-3-3-4-3-6-4-3-0-3-3-4-3-6-4-3-0--|
|-------------------------------------------------------------------|
|-------------------------------------------------------------------|
|-------------------------------------------------------------------|
|-------------------------------------------------------------------|


for these two parts above there is either a wah pedal or an effect being used so dont ask plz.

|------9-10-9--9-----9-10-9--9------8-9-8--8-----8-9-8--8-|  x2
|--9---------12--9---------12---8--------11--8--------10--|
|---------------------------------------------------------|
|---------------------------------------------------------|
|---------------------------------------------------------|
|---------------------------------------------------------|
   _______________________________________________________
                      tremolo pick

|--------------------------------------|
|--------------------------------------|  x2
|--5----------4----------5----------4--|
|--5----------4----------5----------4--|
|--3----------2----------3----------2--|
|--------------------------------------|
   ___________________________________
               tremolo pick

|--------------------------------------------------------------|
|--------------------------------------------------------------| x2
|--9------10-----------0--1--0------9-----10-----------1--0--1-|
|--7------8----3--------------------7-----8----3---------------|
|--------------------------------------------------------------|
|--------------------------------------------------------------|
   ____________________________________________________________
                           tremolo pick

|------------------------------------------------------------------------|
|--7----4-6-7-6-4-6-7----6-4-6-7-6-4--3----4-3-6-4-3---3----4-3-6-4-3----| x2
|----------------------------------------------------4----------------4--|
|------------------------------------------------------------------------|
|------------------------------------------------------------------------|
|------------------------------------------------------------------------|
   ______________________________________________________________________
                                  tremolo pick

|------9-10-9--9-----9-10-9--9------8-9-8--8-----8-9-8--8-|  x2
|--9---------12--9---------12---8--------11--8--------10--|
|---------------------------------------------------------|
|---------------------------------------------------------|
|---------------------------------------------------------|
|---------------------------------------------------------|
   _______________________________________________________
                      tremolo pick

|--------------------------------------|
|--------------------------------------|  x2
|--5----------4----------5----------4--|
|--5----------4----------5----------4--|
|--3----------2----------3----------2--|
|--------------------------------------|
   ___________________________________
               tremolo pick

|--------------------------------------------------------------|
|--------------------------------------------------------------| x2
|--9------10-----------0--1--0------9-----10-----------1--0--1-|
|--7------8----3--------------------7-----8----3---------------|
|--------------------------------------------------------------|
|--------------------------------------------------------------|
   ____________________________________________________________
                           tremolo pick

outro

|------9-10-9--9-----9-10-9--9------8-9-8--8-----8-9-8--8-|  x2
|--9---------12--9---------12---8--------11--8--------10--|
|---------------------------------------------------------|
|---------------------------------------------------------|
|---------------------------------------------------------|
|---------------------------------------------------------|
   _______________________________________________________
                      tremolo pick

|--------------------------------------|
|--------------------------------------|  play until end
|--5----------4----------5----------4--|
|--5----------4----------5----------4--|
|--3----------2----------3----------2--|
|--------------------------------------|
   ___________________________________
               tremolo pick

Thats it.

Tap to rate this tab
# A B C D E F G H I J K L M N O P Q R S T U V W X Y Z