Song name
# A B C D E F G H I J K L M N O P Q R S T U V W X Y Z

Sotajumala - Kuolinjulistus tab

INTRODUCTION


|---0--0--0--------|
|------------------|
|------------------|
|------------------|
|------------------|
|------------12\---|


|----------------------------|----------------------------|
|----------------------------|----------------------------|
|----------------------------|----------------------------|
|----------------------------|----------------------------|
|----------------------------|---------------------8--9---|
|---0--1--6--0--1--7--1--2---|---0--1--6--0--1--7---------|


|----------------------------|----------------------------|
|----------------------------|----------------------------|
|----------------------------|----------------------------|
|----------------------------|----------------------------|
|----------------------------|---------------------8--9---|
|---0--1--6--0--1--7--1--2---|---0--1--6--0--1--7---------|

|---------------------------|
|---------------------------|
|---------------------------|
|---------------------------|
|---------------------------|
|---0-0-0-7---0-0-0-7-4-7---|

|---------------------------|
|---------------------------|
|---------------------------|
|---------------------------|
|---------------------------|
|---0-0-0-7---0-0-0-7-4-7---|

|---------------------------|
|---------------------------|
|---------------------------|
|---------------------------|
|---------------------------|
|---0-0-0-7---0-0-0-7-4-7---|

|-------------------------|
|-------------------------|
|-------------------------|
|-------------------------|
|-------------------------|
|---0-0-0-7-----2-----1---|


1ST VERSE


|----------------------------|----------------------------|
|----------------------------|----------------------------|
|----------------------------|----------------------------|
|----------------------------|----------------------------|
|----------------------------|---------------------8--9---|
|---0--1--6--0--1--7--1--2---|---0--1--6--0--1--7---------|


|----------------------------|----------------------------|
|----------------------------|----------------------------|
|----------------------------|----------------------------|
|----------------------------|----------------------------|
|----------------------------|---------------------8--9---|
|---0--1--6--0--1--7--1--2---|---0--1--6--0--1--7---------|

|----------------------------|----------------------------|
|----------------------------|----------------------------|
|----------------------------|----------------------------|
|----------------------------|----------------------------|
|----------------------------|---------------------8--9---|
|---0--1--6--0--1--7--1--2---|---0--1--6--0--1--7---------|


|----------------------------|----------------------------|
|----------------------------|----------------------------|
|----------------------------|----------------------------|
|----------------------------|----------------------------|
|----------------------------|---------------------8--9---|
|---0--1--6--0--1--7--1--2---|---0--1--6--0--1--7---------|


1ST CHORUS


|-----------------------------|-----------------------------|
|-----------------------------|-----------------------------|
|-----------------------------|-----------------------------|
|-----------------------------|-----------------------------|
|-----------------------------|-----------------------------|
|---1-1-1-1-1-1-1-1-1-1-1-1---|---4-3-2-4-3-2-4-3-2-4-3-2---|

|-----------------------------|-----------------------------|
|-----------------------------|-----------------------------|
|-----------------------------|-----------------------------|
|-----------------------------|-----------------------------|
|-----------------------------|-----------------------------|
|---1-1-1-1-1-1-1-1-1-1-1-1---|---4-3-2-4-3-2-4-3-2-4-3-2---|

|-----------------------------|-----------------------------|
|-----------------------------|-----------------------------|
|-----------------------------|-----------------------------|
|-----------------------------|-----------------------------|
|-----------------------------|-----------------------------|
|---1-1-1-1-1-1-1-1-1-1-1-1---|---4-3-2-4-3-2-4-3-2-4-3-2---|

|-----------------------------|-----------------------------|
|-----------------------------|-----------------------------|
|-----------------------------|-----------------------------|
|-----------------------------|-----------------------------|
|-----------------------------|-----------------------------|
|---1-1-1-1-1-1-1-1-1-1-1-1---|---4-3-2-4-3-2-4-3-2-4-3-2---|


BREAK


|---------------------------|
|---------------------------|
|---------------------------|
|---------------------------|
|---------------------------|
|---0-0-0-7---0-0-0-7-4-7---|

|-------------------------|
|-------------------------|
|-------------------------|
|-------------------------|
|-------------------------|
|---0-0-0-7-----2-----1---|


2ND VERSE


|----------------------------|----------------------------|
|----------------------------|----------------------------|
|----------------------------|----------------------------|
|----------------------------|----------------------------|
|----------------------------|---------------------8--9---|
|---0--1--6--0--1--7--1--2---|---0--1--6--0--1--7---------|


|----------------------------|----------------------------|
|----------------------------|----------------------------|
|----------------------------|----------------------------|
|----------------------------|----------------------------|
|----------------------------|---------------------8--9---|
|---0--1--6--0--1--7--1--2---|---0--1--6--0--1--7---------|

|----------------------------|----------------------------|
|----------------------------|----------------------------|
|----------------------------|----------------------------|
|----------------------------|----------------------------|
|----------------------------|---------------------8--9---|
|---0--1--6--0--1--7--1--2---|---0--1--6--0--1--7---------|


|----------------------------|----------------------------|
|----------------------------|----------------------------|
|----------------------------|----------------------------|
|----------------------------|----------------------------|
|----------------------------|---------------------8--9---|
|---0--1--6--0--1--7--1--2---|---0--1--6--0--1--7---------|

|----------------------------|----------------------------|
|----------------------------|----------------------------|
|----------------------------|----------------------------|
|----------------------------|----------------------------|
|----------------------------|---------------------8--9---|
|---0--1--6--0--1--7--1--2---|---0--1--6--0--1--7---------|


|----------------------------|----------------------------|
|----------------------------|----------------------------|
|----------------------------|----------------------------|
|----------------------------|----------------------------|
|----------------------------|---------------------8--9---|
|---0--1--6--0--1--7--1--2---|---0--1--6--0--1--7---------|

|----------------------------|----------------------------|
|----------------------------|----------------------------|
|----------------------------|----------------------------|
|----------------------------|----------------------------|
|----------------------------|---------------------8--9---|
|---0--1--6--0--1--7--1--2---|---0--1--6--0--1--7---------|


|----------------------------|----------------------------|
|----------------------------|----------------------------|
|----------------------------|----------------------------|
|----------------------------|----------------------------|
|----------------------------|---------------------8--9---|
|---0--1--6--0--1--7--1--2---|---0--1--6--0--1--7---------|


2ND CHORUS


|-----------------------------|-----------------------------|
|-----------------------------|-----------------------------|
|-----------------------------|-----------------------------|
|-----------------------------|-----------------------------|
|-----------------------------|-----------------------------|
|---1-1-1-1-1-1-1-1-1-1-1-1---|---4-3-2-4-3-2-4-3-2-4-3-2---|

|-----------------------------|-----------------------------|
|-----------------------------|-----------------------------|
|-----------------------------|-----------------------------|
|-----------------------------|-----------------------------|
|-----------------------------|-----------------------------|
|---1-1-1-1-1-1-1-1-1-1-1-1---|---4-3-2-4-3-2-4-3-2-4-3-2---|

|-----------------------------|-----------------------------|
|-----------------------------|-----------------------------|
|-----------------------------|-----------------------------|
|-----------------------------|-----------------------------|
|-----------------------------|-----------------------------|
|---1-1-1-1-1-1-1-1-1-1-1-1---|---4-3-2-4-3-2-4-3-2-4-3-2---|

|-----------------------------|-----------------------------|
|-----------------------------|-----------------------------|
|-----------------------------|-----------------------------|
|-----------------------------|-----------------------------|
|-----------------------------|-----------------------------|
|---1-1-1-1-1-1-1-1-1-1-1-1---|---4-3-2-4-3-2-4-3-2-4-3-2---|

|------------------------------------|----------------|
|------------------------------------|----------------|
|------------------------------------|----------------|
|------------------------------------|---2--2--2--2---|
|---7----9--7----9--7----9--7----9---|---2--2--2--2---|
|-----8-------8-------8-------8------|---0--0--0--0---|


SOLOS (RYTHMIC ONLY)


For all the solos, a sample rythmic guitar tab.
At 2:31, plays it too, it's the rythmic and bass guitar tab :

|----------------------------------------|
|----------------------------------------|
|----------------------------------------|
|----------------------------------------|
|----------------------------------------|
|---4--0--1--4--0--1--4--0--1--4--0--1---|


PRE-VERSE (3RD VERSE ONLY)


|---------------------------|
|---------------------------|
|---------------------------|
|---------------------------|
|---------------------------|
|---0-0-0-7---0-0-0-7-4-7---|

|---------------------------|
|---------------------------|
|---------------------------|
|---------------------------|
|---------------------------|
|---0-0-0-7---0-0-0-7-4-7---|

|---------------------------|
|---------------------------|
|---------------------------|
|---------------------------|
|---------------------------|
|---0-0-0-7---0-0-0-7-4-7---|

|-------------------------|
|-------------------------|
|-------------------------|
|-------------------------|
|-------------------------|
|---0-0-0-7-----2-----1---|


3RD VERSE


|----------------------------|----------------------------|
|----------------------------|----------------------------|
|----------------------------|----------------------------|
|----------------------------|----------------------------|
|----------------------------|---------------------8--9---|
|---0--1--6--0--1--7--1--2---|---0--1--6--0--1--7---------|


|----------------------------|----------------------------|
|----------------------------|----------------------------|
|----------------------------|----------------------------|
|----------------------------|----------------------------|
|----------------------------|---------------------8--9---|
|---0--1--6--0--1--7--1--2---|---0--1--6--0--1--7---------|

|----------------------------|----------------------------|
|----------------------------|----------------------------|
|----------------------------|----------------------------|
|----------------------------|----------------------------|
|----------------------------|---------------------8--9---|
|---0--1--6--0--1--7--1--2---|---0--1--6--0--1--7---------|


|----------------------------|----------------------------|
|----------------------------|----------------------------|
|----------------------------|----------------------------|
|----------------------------|----------------------------|
|----------------------------|---------------------8--9---|
|---0--1--6--0--1--7--1--2---|---0--1--6--0--1--7---------|

|----------------------------|----------------------------|
|----------------------------|----------------------------|
|----------------------------|----------------------------|
|----------------------------|----------------------------|
|----------------------------|---------------------8--9---|
|---0--1--6--0--1--7--1--2---|---0--1--6--0--1--7---------|


|----------------------------|----------------------------|
|----------------------------|----------------------------|
|----------------------------|----------------------------|
|----------------------------|----------------------------|
|----------------------------|---------------------8--9---|
|---0--1--6--0--1--7--1--2---|---0--1--6--0--1--7---------|

|----------------------------|----------------------------|
|----------------------------|----------------------------|
|----------------------------|----------------------------|
|----------------------------|----------------------------|
|----------------------------|---------------------8--9---|
|---0--1--6--0--1--7--1--2---|---0--1--6--0--1--7---------|


|----------------------------|----------------------------|
|----------------------------|----------------------------|
|----------------------------|----------------------------|
|----------------------------|----------------------------|
|----------------------------|---------------------8--9---|
|---0--1--6--0--1--7--1--2---|---0--1--6--0--1--7---------|

I think it's 8x, not 4x.


3RD CHORUS


|-----------------------------|-----------------------------|
|-----------------------------|-----------------------------|
|-----------------------------|-----------------------------|
|-----------------------------|-----------------------------|
|-----------------------------|-----------------------------|
|---1-1-1-1-1-1-1-1-1-1-1-1---|---4-3-2-4-3-2-4-3-2-4-3-2---|

|-----------------------------|-----------------------------|
|-----------------------------|-----------------------------|
|-----------------------------|-----------------------------|
|-----------------------------|-----------------------------|
|-----------------------------|-----------------------------|
|---1-1-1-1-1-1-1-1-1-1-1-1---|---4-3-2-4-3-2-4-3-2-4-3-2---|

|-----------------------------|-----------------------------|
|-----------------------------|-----------------------------|
|-----------------------------|-----------------------------|
|-----------------------------|-----------------------------|
|-----------------------------|-----------------------------|
|---1-1-1-1-1-1-1-1-1-1-1-1---|---4-3-2-4-3-2-4-3-2-4-3-2---|

|-----------------------------|-----------------------------|
|-----------------------------|-----------------------------|
|-----------------------------|-----------------------------|
|-----------------------------|-----------------------------|
|-----------------------------|-----------------------------|
|---1-1-1-1-1-1-1-1-1-1-1-1---|---4-3-2-4-3-2-4-3-2-4-3-2---|

|------------------------------------|----------------|
|------------------------------------|----------------|
|------------------------------------|----------------|
|------------------------------------|---2--2--2--2---|
|---7----9--7----9--7----9--7----9---|---2--2--2--2---|
|-----8-------8-------8-------8------|---0--0--0--0---|

Sotajumala - 2007.
Album : Teloitus.
Words : Mynni Luukkainen.
Music : Lapio, Otsala.

Tabbed by Martin-Death !!!
Tap to rate this tab
 
# A B C D E F G H I J K L M N O P Q R S T U V W X Y Z