Song name
# A B C D E F G H I J K L M N O P Q R S T U V W X Y Z

Soul Asylum - See You Later chords

See You Later
Soul Asylum
(Dave Pirner)

Chords:
D - xx0232
D/C - x3x230
D/B - x20230
Em11 - xx2233
D/F# - 2x0232
G - 3x0033
C - x32010

Intro: D D/C D/B

          D           D/C         D/B
e-3-2-0-------3-2-0-------3-2-0------------------|
B-------3-----------3-----------3----------------|
G---------2~----------3~----------4~-------------|
D------------------------------------------------|
A------------------------------------------------|
E------------------------------------------------|

          D               D/C             D/B
e-3-2-0--------------------------------------------|
B-------3-----5/7\5-3-0-3-----5/7\5-3-0-3----------|
G---------2~--------------3~--------------4~-------|
D--------------------------------------------------|
A--------------------------------------------------|
E--------------------------------------------------|

  D               Em11            D/F#
e-2---2---2---2---3---3---3---3---2---2---2---2-----------------|
B---3---3---3---3---3---3---3---3---3---3---3---3---------------|
G--------------------------------------------------2-0----------|
D-------------------------------------------------------4--2-0--|
A---------------------------------------------------------------|
E---------------------------------------------------------------|

Pattern: One guitar plays the chords the other plays this.

  D               Em11            D/F#            G
e-2---2---2---2---3---3---3---3---2---2---2---2---3---3---3---3-----|
B---3---3---3---3---3---3---3---3---3---3---3---3---3---3---3---3---|
G-------------------------------------------------------------------|
D-------------------------------------------------------------------|
A-------------------------------------------------------------------|
E-------------------------------------------------------------------|

D	Em11	     G  G2  G
I guess I'll see you later
Sweet manipulater
And how I thank you dearly
For helpin' me see clearly

   D                       C
e---------------------------------------------------------------|
B------3-----3-----3-----3-----3-----3-----3-----3--------------|
G----0-----0-----0-----0-----0-----0-----0-----0----------------|
D--0-----0-----0-----0------------------------------------------|
A--------------------------3-----3-----3-----3------------------|
E---------------------------------------------------------------|

D
Yes sir, no sir, let me go
    C
Sir I don't even want to know
    D                            C
Sir I've had all that I can take today

C/G

E           G#m7          A
But I found out so long ago
E           G#m7          A
And it don't matter if it shows
E           G#m7          A
And its up in the air tonight
E           G#m7          A
Yes its up in the air tonight

Now your anticipating,
That nostalgia's waiting,
If your social statement,
Boxed up in the basement,

Yes ma'm, no ma'm, let me go
Ma'm I don't even give a damn
Ma'm I suppose I'll stand another day

I put my flag despite my plans
I hope this flight it never ends
And its up in the air tonight
Yes its up in the air tonight

            D                Em11
'Cause I've got all night
                     D/F#
To lie here on the floor
                 D      Em11
I've got all night
              D/F#
Just like the night before
           D
So make it soon
Em11                 D/F#          G
And I guess I'll see you later
I guess I'll see you later
I guess I'll see you later
I guess I'll see you later
I guess I'll see you, see you
See you, see you, see you, see you later
       D         Em11  D/C
Its so up in the air tonight
Tap to rate this tab
# A B C D E F G H I J K L M N O P Q R S T U V W X Y Z