Song name
# A B C D E F G H I J K L M N O P Q R S T U V W X Y Z

Soul Asylum - Lies Of Hate tab

Highlighted       Show chord diagrams
Lies of Hate
Soul Asylum
(Dave Pirner/Sterling Campbell)


Intro: Riff 1

       STRUM    DOWNSTROKE
e--------------------------------9-7-9-7-9-7-9-7-9-7-9-7-|
B--------------------------------------------------------|
G--2---2-2-2-2--2-2-2------------------------------------|
D--2h4-4-4-4-4--4-4-4------------------------------------|
A--2h4-4-4-4-4--4-4-4------------------------------------|
E--2---2-2-2-2--2-2-2------------------------------------|

Intro: Riff 2 (distortion)

   F#5            F#5
e------------------------------------------|
B------------------------------------------|
G------------------------------------------|
D--4-4-4----------4-4-4--------------------|
A--4-4-4----------4-4-4--------------------|
E--2-2-2--4b~~~~--2-2-2--4b~~~~~-----------|

    F#m                 A
You make me fall from
  G           B
Lies of hate
    F#m                    A
You make these walls from
  G              B
Lines of a face

A
Nobody's watching
   G                     Riff 2
So why do you act like a fake

You make me crawl from
Lies of hate
You wake me up from
The lines that seperate

A            G
And when you shine
       A
I know how to find out about
B
How to get out of it
G                       D
How to get out of these chains
A
How to get out of it
B
How to get out of it
G                      E
How to get out of this place

Solo: E C D Bb C  Then Riff 1

You make me fall from
Lies of hate

And when you shine
I know how to find out about
How to get out of it
How to get out of this chase
How to find out about
How to get out of it
How to get out of your space
How to get out of it
How to get out of it
How to get out of this place
How to find out about
How to go out without
Living the lies of hate
Tap to rate this tab
 
# A B C D E F G H I J K L M N O P Q R S T U V W X Y Z