Song name
# A B C D E F G H I J K L M N O P Q R S T U V W X Y Z

Soul Asylum - Draggin The Lake tab

Highlighted       Show chord diagrams
Draggin' the Lake
Soul Asylum
(Dave Pirner)


   D/F#  D/E   D     D/C#  D/B D/C#
e---------------------------------------------------------|
B------3-----3-----3-----3--------------------------------|
G----2-----2-----2-----2-----2---2------------------------| x2 (2nd time with 
D--4-----2-----0------------------------------------------|     chords played
A--------------------4-----2---4--------------------------|     on guitar 2)
E---------------------------------------------------------|
Lower case letters denote bass notes.

D                 g  b    D              
Sent on a mission to find out
D                      g   b   D/F# D/E D D/C# D/B D/C#
Just how much shit one man can take
D                 g  b    D   
Went to the river to swim upstream
D                 g  b   D/F# D/E D D/C# D/B D/C#
But got dragged into the lake

e--------------------------------------|
B------3----------3---------3----------|
G--------------------------------------|  x2
D--4/5---5----4/5---4---4/5---2--------|
A--------------------------------------|
E--------------------------------------|

g	F#
You're wide awake
But still you're dreaming
Of the pride it takes
It has no meaning

g  D       C
Am I still here
Am  D   g       D          C 
Can you see me please say yes
Am  D   g        D          C
Can you heal me please say yes
Am   D   g              D             D/F# D/E D D/C# D/B D/C#
When you watch over me I am blessed

Now that you're all grown up
You're not so self assured you'll never know
Who do you answer to when
No one's hanging round to let it show

You're wide awake
But still you're dreaming
The pride it takes
It has no meaning

Am I still here
Can you hear me please say yes
Can you heal me please say yes
When you watch over me I am blessed

Solo: C G/B A x4

Verse 3: Key change from D to E.

E                    A    C# E 
You're old enough to know better
E              A C# E 
Than to expect anything
E           
Take care of yourself
A   C#     E
You should know not to depend on anyone

Am I still here
Can you feel me please say yes
Can you heal me please say yes
When you watch over me I am blessed

Am I still here
Can you see me please say yes
Can you heal me please say yes
When you watch over me I am blessed
Tap to rate this tab
# A B C D E F G H I J K L M N O P Q R S T U V W X Y Z