Song name
# A B C D E F G H I J K L M N O P Q R S T U V W X Y Z

Soul Asylum - New World chords

Highlighted       Show chord diagrams
 Soul Asylum
“New world”
"Grave Dancers Union" album

Chords:

G__ 320033
Dadd9__ 032033
C__ x32010
Bm__ x24432
D7__ xx0212
Am7__ x02010
D__ xx0232
A__ x02220
Am__002210



Intro: 
G__Dadd9__G___ Dadd9___G___Dadd9  



G___________________Dadd9___G
 Lives in a little lonely  town
Dadd9______G______Dadd9___________G_____________Dadd9
No one's around, except for the drinking
G____________Dadd9_____G
Nobody ever  gets____around
Dadd9__________G_________Dadd9_____G         
But those who leave the township sinking

BRIDGE:

________Bm__D7__________Am7__Am_Am7_Am___________D
May you   rot______in heaven
_______Bm_____D7______Am7__Am_Am7__Am___________D
Got to  be   home by seven


CHORUS:
__________G_____D____Em____Em
And the field burns away
_____C_____G________Am_____Am
The sky breathes it in
_____D__________G
So why sit and wait
_____C________G_____D____________G______Dadd9____G____Dadd9
For the new world /STOP/_____to begin?


I'm coming out across your borders
With new orders for you to take
I'd really like to take out your daughter
Down by the water, down by the lake


BRIDGE: 

When the cold water's on her skin
I can feel how long it's been

CHORUS: 

And the neighbors will all be there
And no one will know what to wear
So why sit and wait
_____C________G_____D____________G______Dadd9____G____Dadd9
For the new world /STOP/_____to begin?



A_____A_____D____D



G_____________Dadd9________G
I got a lot___I got____to do

Dadd9__________G___Dadd9___________G
Just to get through the end of the day



A___________________________
It hardly ever even happens
______________D______________C
But I go to sleep the same anyway


---------------------------------------------------------2----I_e
---------------------------------------------------------3----I
-----------0------------0-----------0-------------0------2----I
-------0------------0-----------0-------------0----------0----I
----3------------2-----------1------------0-------------------I
--------------------------------------------------------------I_E



CHORUS: 

And you can't believe in yourself
You can't believe in anyone else
So why sit and wait
_____C________G_____D____________G______Dadd9____G____Dadd9 
For the new world /STOP/_____to begin?


G____Dadd9____G_____Dadd9


………..and some natural harmonics for the end (a few times) 

----------------------------------------------------------------I_e
----------------------------------------------------------------I
-------<12>------------<12>---------------<7>------------<7>----I
--<12>-----------<12>-----------------<7>-----------<7>---------I
----------------------------------------------------------------I
----------------------------------------------------------------I_E




SOUL ASYLUM FOREVER !
oxygen909

Tap to rate this tab
# A B C D E F G H I J K L M N O P Q R S T U V W X Y Z