Soul Asylum - Somebody To Shove tab

================================================================
                  Somebody to Shove - Soul Asylum
================================================================
                     As recorded by Soul Asylum
             (From the 1992 Album Grave Dancers Union)

Words and Music by Soul Asylum

Tuning: (E A D G B e) - 'Standard Tuning'


Legend:
.  = Palm Mute
/  = Slide
p  = Pull-off
h  = Hammer-on
b  = Bend
br = Bend then Release


Intro

Guitar 1:

e--12p0-0--10p0-0-------15-------14-------------|
B-----------------12-------12-12----12-12-15----|
G-----------------------------------------------| x3
D-----------------------------------------------|
A-----------------------------------------------|
E-----------------------------------------------|



Guitar 2:

After Guitar 1 plays the above riff once, Guitar 2 plays this:


e----0-----------0-----|
B----0-----------0-----|
G----x-----------x-----|
D----2-----------2-----|
A----2-----------2-----|
E----0-----------0-----|



Verse:

e----------------------------------------------------------------------|
B----------------------------------------------------------------------|
G--4-----4-----4---4-----4-----4----4-----4-----4---4-----4-----4------|
D--4-----4-----4---4-----4-----4----4-----4-----4---4-----4-----4------|
A--3-3-3-3-3-3-3-3-3-3-3-3-3-3-3-3--2-2-2-2-2-2-2-2-2-2-2-2-2-2-2-2----|
E----------------------------------------------------------------------|
     . .   . .   .   . .   . .   .    . .   . .   .   . .   . .   .


Chorus (Let ring):


e----3-----------3-----------3-------------3---------|
B------3-----------3-----------3-------------3-------|
G------------2--------------------------5------------|
D------------2--------------------------5------------|
A--2---------0------------2-------------3------------|
E--3-------------------------------------------------|
  
   G      A7sus4          G           Csus2



Post Chorus (Somebody to shove part):

e-------------------------------------------|
B-------------------------------------------|
G--5----5--5----5--5----4----4----2----2----|
D--5----5--5----5--5----4----4----2----2----|
A--3----3--3----3--3----2----2----0----0----|
E-------------------------------------------|



Solo:

Background Chords:

e--0----0------0--0--0--0--0--0--0-------------|
B--0----0------0--0--0--0--0--0--0-------------|
G--x----x------x--x--x--x--x--x--x----0--0--0--| Repeat as needed
D--2----2------2--2--2--2--2--2--2----0--0--0--| 
A--2----2------2--2--2--2--2--2--2----0--0--0--|
E--0----0------0--0--0--0--0--0--0-------------|


Solo:

e-----------------------------------------------|
B--------------------------7br----7-------------|
G---------------------------------------9p7-----|
D------------6--7---7h9----------------------9--|
A--/7---7---------------------------------------|
E-----------------------------------------------|


e--0--0--14--0--14--0--14--12--12--14--15--15--15--15--12--|
B--0--0---0--0---0--0---0---0---0---0---0---0---0---0---0--|
G--0--0---0--0---0--0---0---0---0---0---0---0---0---0---0--|
D----------------------------------------------------------|
A----------------------------------------------------------|
E----------------------------------------------------------|


e--0--7--0--8--0--7--0--5--0--3--0--5--0--3--0--2--0--0--|
B--0--0--0--0--0--0--0--0--0--0--0--0--0--0--0--0--0--0--|
G--0--0--0--0--0--0--0--0--0--0--0--0--0--0--0--0--0--0--|
D--------------------------------------------------------|
A--------------------------------------------------------|
E--------------------------------------------------------|


Verse 2:

e----------------------------------------------------------------------|
B----------------------------------------------------------------------|
G--5-----5-----5---5-----5-----5----4-----4-----4---4-----4-----4------|
D--5-----5-----5---5-----5-----5----4-----4-----4---4-----4-----4------|
A--3-3-3-3-3-3-3-3-3-3-3-3-3-3-3-3--2-2-2-2-2-2-2-2-2-2-2-2-2-2-2-2----|
E----------------------------------------------------------------------|
     . .   . .   .   . .   . .   .    . .   . .   .   . .   . .   .


The outro is the same as the intro, except you end on this note:


e-------|
B-------|
G--12~--|
D-------|
A-------|
E-------|



Order:

Intro.........(1x)
Verse.........(4x)
Chorus........(4x)
Verse.........(4x)
Chorus........(2x)
Post-Chorus...(4x)
Solo..........(1x)
Verse 2.......(2x)
Chorus........(4x)
Post-Chorus...(8x)
Outro.........(1x)
Tap to rate this tab
 
# A B C D E F G H I J K L M N O P Q R S T U V W X Y Z