Song name
# A B C D E F G H I J K L M N O P Q R S T U V W X Y Z

Soul Asylum - Black Gold tab

Soul Asylum – Black Gold

INTRO: RIFF-1
E |-----------------------2-2-----2-----2-2-----2-----|
B |-----------------------3---3-----3-------3-----3---|
G |---------0-----0-----0-2-----2-----2-------2-----2-|
D |-------2-----0-----0---0---------------------------|
A |-0-2-3-----2-----0---------------------------------|
E |---------------------------------------------------|

RIFF-2: [PLAY THIS PART TWICE FOR INTRO]
E |---10---9-----7---5-----5---5--3-3--2--|
B |---10---10----8---7-----7---5--3-3--3--|
G |---11---9--11-7-9-7-----7---6--4-4--2--|
D |-0----0---------------0---0------------|
A |---------------------------------------|
E |---------------------------------------|

E |-3-2-2-2-3-2-2-----------------------2-2---|
B |-0-3-3-3-0-3-3-----------------------3-3---|
G |-0-2-2-2-0-2-3---------0-----0-----0-2-2---|
D |-0-0-0-0-0-0-0-------2-----0-----0---0-0---|
A |-2-------2-----0-2-3-----2-----0-----------|
E |-3-------3---------------------------------|

PLAY OVER VERSE:
E |-2-0-2-3-0-2-2--5-3-3-3--3-2-2-2-|
B |-3-3-3-3-3-3-3--5-3-3-3--3-3-3-3-|
G |-2-2-2-2-2-2-2--6-4-4-4--4-2-2-2-|
D |---------------------------0-0-0-|
A |---------------------------------|
E |---------------------------------|
   two boys on a playground                           tryin' to push each other down

PLAY OVER CHORUS
E |-3-2-2-2-3-2-2-----------------------2-2---|
B |-0-3-3-3-0-3-3-----------------------3-3---|
G |-0-2-2-2-0-2-3---------0-----0-----0-2-2---|
D |-0-0-0-0-0-0-0-------2-----0-----0---0-0---|
A |-2-------2-----0-2-3-----2-----0-----------|
E |-3-------3---------------------------------|
                  black gold in a           white fight         won’t you fill up the 
tank let's go for a ride

LYRICS:
VERSE:
two boys on a playground
tryin' to push each other down
see the crowd gather 'round
nothing attracts a crowd like a crowd

CHORUS:
black gold in a white fight
fill up the tank let's go for a ride
i don't care about no wheelchair
i got so much left to do with my life

VERSE:
moving backwards through time
never learn,never mind
that side's yours,this side's mine
brother you ain't my kind

CHORUS:
black soldier, white fight
fill up the tank let's go for a ride
sure like to feel some pride
but this place just makes me feel sad inside

[Funky Interlude Part]

[C]             [Em]
mother do you know where
your kids are to[D]night...

PLAY RIFF-2 x2:

VERSE:
keep the kids off the street
gives 'em something to do,something to eat
this spot was a playground
this flat land used to be a town
Tap to rate this tab
# A B C D E F G H I J K L M N O P Q R S T U V W X Y Z