Song name
# A B C D E F G H I J K L M N O P Q R S T U V W X Y Z

Soul Asylum - Miss This tab

MISS THIS- SOUL ASYLUM
MUSIC FROM THE MOTION PICTURE “TWISTER”

GUITAR 1 ON TOP
GUIATR 2 ON BOTTOM
H= HAMMER ON
BF= BEND FULL
PreB= PRE BEND
TREM= TREMELO PICK*

WHEN THE SONG FIRST STARTS THERE IS SOME KINDA CRAZY FEEDBACK SOUND WITH A WAH PEDAL-FYI
INTRO-
E|----------------------------------------------------|
B|----------------------------------------------------|
G|----------------------------------------------------|
D|-------------2--------------3--------------2--------|
A|-------0-2-4----------0-2-4----------0-2-4----------|
E|-0-2-4----------0-3-5----------0-2-4----------0-3-5-|
    H_H___H_H______H_H___H_H
E|---------------------------------------------------|
B|-12----------------------------12------------------|
G|-14gradually_bend----------------------------------|
D|---------------------------------------------------|
A|---------------------------------------------------|
E|---------------------------------------------------|
 BF-TREM                          PM. trem
verse
one of the guitars uses a wah here, too hard to tab
E|-----------------------------------------|
B|-----------------------------------------|
G|-----------------------------------------|
D|-2-4-4-2-4-2-4-4-2-4-7-9-9-7-9-7-9-9-7-9-|
A|-2-4-4-2-4-2-4-4-2-4-7-9-9-7-9-7-9-9-7-9-|
E|-0-2-2-0-2-0-2-2-0-2-5-7-7-5-7-5-7-7-5-7-|

Pre chorus
E|-----------0-0-0-0-0-0-0-0-0-0-0-0-0-0--|
B|-0-0-0-0-0------------------------------|
G|-4-4-4-4-4-6-6-6-6-6-9-9-9-9-9-9-9-9-9--|
D|-4-4-4-4-4-6-6-6-6-6-9-9-9-9-9-9-9-9-9--|
A|-2-2-2-2-2-4-4-4-4-4-7-7-7-7-7-7-7-7-7--|
E|---------------------0-0-0-0-0-0-0-0-0--|
chorus
E|-----------0-0-0-0-0-0-0-0-0-0-0-0-0-0--|
B|-0-0-0-0-0------------------------------|
G|-4-4-4-4-4-6-6-6-6-6-9-9-9-9-9-9-9-9-9--|
D|-4-4-4-4-4-6-6-6-6-6-9-9-9-9-9-9-9-9-9--|
A|-2-2-2-2-2-4-4-4-4-4-7-7-7-7-7-7-7-7-7--|
E|---------------------0-0-0-0-0-0-0-0-0--|

E|-------------------------------------------|
B|-------------------------------------------|
G|-16-16-16-18-18-18-21-21-21-21-21-20-18-16-|
D|-------------------------------------------|
A|-14-14-14-16-16-16-19-19-19-19-19-18-16-14-|
E|-------------------------------------------|
Tap to rate this tab
 
# A B C D E F G H I J K L M N O P Q R S T U V W X Y Z