Guitaretab - guitar tabs
Song name
# A B C D E F G H I J K L M N O P Q R S T U V W X Y Z

Soul Coughing - Circles tab

Much closer, I hope. This is covered by bass instead in some parts.  The only hard part 
getting your fingers out of the way twice every measure.

Soul Coughing  Circles
By Mehed (dongre@post.harvard.edu)

Standard:

Verse/Chorus
|--------------------------------|
|--------------------------------|
|----.-------.-------.-------.---|
|----3-------3-------3-------3---|
|----------3---5---------1-1---0-|
|1---------------3---------------|
[ Tab from: http://www.guitaretab.com/s/soul-coughing/118726.html ]
Bridge
|--------------------------------|
|--------------------------------|
|-------.---------------.--------|
|-------2--0---0--------2--0---0-|
|--------------------------------|
|1---1-----------1---1-----------|


Drop D:

Verse/chorus
|--------------------------------|
|--------------------------------|
|----.-------.-------.-------.---|
|----3-------3-------3-------3---|
|----------3---5---------1-1---0-|
|3---------------5---------------|

Bridge
|--------------------------------|
|--------------------------------|
|-------.---------------.--------|
|-------2---------------2--------|
|--------------------------------|
|3---3-----0---0-3---3-----0---0-|
Related for Circles tab