Song name
# A B C D E F G H I J K L M N O P Q R S T U V W X Y Z

Soulcracker - Too Far Too Hard tab

"Too Far Too Hard" by Soulcracker
By Phoenix D
I dont know if i got the counts right but I think
i got all the chords right, just play around with it!
Intro
E---------------------------------------------------|
B---------------------------------------------------|
G---------------------------------------------------|
D-9-9-9-9-9-9-9-9-9-9-------------------------------|
A-7-7-7-7-7-7-7-7-7-7-------------------------------|
E-x-x-x-x-x-x-x-x-x-x-------------------------------|


pre verse
E---------------------------------------------|
B---------------------------------------------|
G---------------------------------------------|
D-4-4-4-4-------------------------------------| X2
A-2-2-2-2--4-4-4-4/-5-5-5-5/-3-3-3-3----------|
E-x-x-x-x--2-2-2-2/-3-3-3-3/-1-1-1-1----------|

Pick Scratch


E---------------------------------------------|
B---------------------------------------------|
G---------------------------------------------|
D-4-4-4-4-------------------------------------|
A-2-2-2-2--4-4-4-4/-5-5-5-5/-3-3-3-3----------|
E-x-x-x-x--2-2-2-2/-3-3-3-3/-1-1-1-1----------|

"Im a fool letting you meet someone else..."

Chorus
E---------------------------------------------|
B---------------------------------------------|
G-------------------5-5-5-5-------------------|
D-4-4-4-4-----------5-5-5-5-------------------|
A-2-2-2-2--4-4-4-4--x-x-x-x-------------------|
E-x-x-x-x--2-2-2-2--3-3-3-3-------------------|

Middle
E-x-x-x-x-x-x-x--|
B-x-x-x-x-x-x-x--| X7
G-x-x-x-x-x-x-x--|
D-x-x-x-x-x-x-x--|
A-x-x-x-x-x-x-x--|
E-x-x-x-x-x-x-x--|


E--------------------------------|
B--------------------------------|
G------------------------5-5-5-5-|
D------------------------5-5-5-5-|
A--------4-4-4-4-5-5-5-5-x-x-x-x-|
E-2^---0-2-2-2-2-3-3-3-3-3-3-3-3-|


Chorus
E--------------------------------|
B--------------------------------|
G--------------------------------|
D-4-4----------------------------|
A-2-2---4-4--5-5--3-3------------| X2?
E-x-x---2-2--3-3--1-1------------|
End
Tap to rate this tab
 
# A B C D E F G H I J K L M N O P Q R S T U V W X Y Z