Song name
# A B C D E F G H I J K L M N O P Q R S T U V W X Y Z

Soulfly - Unleash tab

Tuning from low to high is: B F# B E G# C#

Intro (Rhythm Guitar; Palm-Muted)
|---------------------------------|
|---------------------------------|
|---------------------------------|
|---------------------------------|
|---------------------------------|
|-4-4-4-4-4-4-4-4-4-4-4-4-4-4-4-4-|

Intro (Lead Guitar; i don't know what effects he's using if any)
|-15v----15v----17v----15v----|
|-----------------------------|
|-----------------------------|
|-----------------------------|
|-----------------------------|
|-----------------------------|

Verse
|-----------------------------------------------------|
|-----------------------------------------------------|
|-----------------------------------------------------|
|-----------------------------------------------------|
|-----------------------------------------------------|
|-444-444-4444-444-444-4444-444-444-4444-444-444-4444-|

Chorus
|---------------------------------|
|---------------------------------|
|---------------------------------|
|---------------------------------|
|-3-4-4-5-4-5-4-5-3-4-4-5-4-5-4-5-|
|-3-4-4-5-4-5-4-5-3-4-4-5-4-5-4-5-|

Interlude
|-----------------|
|-----------------|
|-----------------|
|---7---7---7-----|
|-5-5-5-5-5-5-----|
|-5---5---5--5555-|
             ....

that's all i have for right now, the rest of the song Coming Soon!
Tap to rate this tab
 
# A B C D E F G H I J K L M N O P Q R S T U V W X Y Z