Song name
# A B C D E F G H I J K L M N O P Q R S T U V W X Y Z

Soulfly - Warmageddon tab

Intro
|---------------------|
|---------------------|
|------------7-10-7-9-|
|-10~----7~-----------|
|-10~----7~-----------|
|-10~----7~-----------|

Main Riff
|---------------------------------------------------------------------------------------------|
|---------------------------------------------------------------------------------------------|
|-10v-----------7-10-7-9--10v-----------7-10-7-9--10v-----------7-10-7-9-------------7-10-7-9-|
|-------------------------------------------------------------------------10~----7~-----------|
|-------------------------------------------------------------------------10~----7~-----------|
|------22-2-2-2----------------22-2-2-2----------------22-2-2-2-----------10~----7~-----------|
Tap to rate this tab
 
# A B C D E F G H I J K L M N O P Q R S T U V W X Y Z