Song name
# A B C D E F G H I J K L M N O P Q R S T U V W X Y Z

Soulfly - One tab

Soulfly - One - III

Tabbed by Elvisz(elvisz@kornkids.com)

Intro:(with delay and distorion)
|------------13~^~-----12^~-|
|-10~~------------10~-------|
|-----9~~10~~--------9~-----|
|---------------------------|
|---------------------------|
|---------------------------|

Chorus:
|------------------------|
|------------------------|
|------------------------|
|------------------------|
|-1-1-10-0-0-11-1-10-0-0-|
|-1-1-10-0-0-11-1-10-0-0-|

Verse:
|--------|
|--------|
|--------|
|--------|
|-XX--XX-|
|-XX--XX-|

Pre-bridge:
|------------------------|
|------------------------|
|------------------------|
|------------------------|
|-1-1-10-0-0-11-1-10-0-0-|
|-1-1-10-0-0-11-1-10-0-0-|

Bridge1:(with delay and distorion)
|--------13~^~------12^~-|
|-9~~10~~-----9~~10~-----|
|------------------------|
|------------------------|
|------------------------|
|------------------------|

Chorus:
|------------------------|
|------------------------|
|------------------------|
|------------------------|
|-1-1-10-0-0-11-1-10-0-0-|
|-1-1-10-0-0-11-1-10-0-0-|

Verse:
|--------|
|--------|
|--------|
|--------|
|-XX--XX-|
|-XX--XX-|

Pre-bridge:
|------------------------|
|------------------------|
|------------------------|
|------------------------|
|-1-1-10-0-0-11-1-10-0-0-|
|-1-1-10-0-0-11-1-10-0-0-|

Bridge2:(with delay and distorion)
|--------|-13-13^-13-13^-13-13^-13-13^-13----|-13-13^-13-13^-13-13^-13-13^-13-|
|-9^%^%^%|-------------------------------10~~|--------------------------------|
|--------|-----------------------------------|--------------------------------|
|--------|-----------------------------------|--------------------------------|
|--------|-----------------------------------|--------------------------------|
|--------|-----------------------------------|--------------------------------|

Chorus:
|------------------------|
|------------------------|
|------------------------|
|------------------------|
|-1-1-10-0-0-11-1-10-0-0-|
|-1-1-10-0-0-11-1-10-0-0-|

Verse:
|--------|
|--------|
|--------|
|--------|
|-XX--XX-|
|-XX--XX-|

Chorus:
|------------------------|
|------------------------|
|------------------------|
|------------------------|
|-1-1-10-0-0-11-1-10-0-0-|
|-1-1-10-0-0-11-1-10-0-0-|

Verse:
|--------|
|--------|
|--------|
|--------|
|-XX--XX-|
|-XX--XX-|

Chorus:
|------------------------|
|------------------------|
|------------------------|
|------------------------|
|-1-1-10-0-0-11-1-10-0-0-|
|-1-1-10-0-0-11-1-10-0-0-|

Outro:(with delay and distorion)
|--------|-13-13^-13-13^-13-13^-13-13^-13----|-13-13^-13-13^-13-13^-13-13^-13-|
|-9^%^%^%|-------------------------------10~~|--------------------------------|
|--------|-----------------------------------|--------------------------------|
|--------|-----------------------------------|--------------------------------|
|--------|-----------------------------------|--------------------------------|
|--------|-----------------------------------|--------------------------------|
Tap to rate this tab
 
# A B C D E F G H I J K L M N O P Q R S T U V W X Y Z