Song name
# A B C D E F G H I J K L M N O P Q R S T U V W X Y Z

Soulfly - Tribe tab

 TUNING: tune as follows (B-E-A-D-F-B)


     INTO/VERSE: 

    B|-----------------------------|
    F|-----------------------------|
    D|-----------------------------|
    A|-----------------------------|
    E|-6-x-x-x-x-6--4--7-6/7-------|
    B|-4-x-x-x-x-4--2--5-4/5-------|

     FILL:

    B|-----------------------------|
    F|-----------------------------|
    D|-----------------------------|
    A|-----------------------------|
    E|-2--2-5--2-2--2-2-5----------|
    B|-0--0-3--0-0--0-0-3----------|
      |----|   |-------|       ---------P.M's

     CHORUS:

    B|-----------------------------------------|
    F|-----------------------------------------|
    D|-----------------------------------------|
    A|-----------------------------------------|
    E|-2-2-3-2-3-2-3-2--2-2-3-2-3-2-3--8-------|
    B|-0-0-1-0-1-0-1-0--0-0-1-0-1-0-1--6-------|
     
     INTERLUDE:

    B|------------------------------|
    F|------------------------------|
    D|------------------------------|
    A|------------------------------|
    E|------------------------------|
    B|-6-0-6-0-6-0-6-0-6~~~~--------|

    B|-----------------------------------|
    F|-----------------------------------|
    D|-----------------------------------|
    A|-----------------------------------|
    E|-2-2--2-2--2-2--2-2----------------|
    B|-0-0--0-0--0-0--0-0--6b------------|

    B|-----------------------------------|
    F|-----------------------------------|
    D|-----------------------------------|
    A|-----------------------9b----------|
    E|-2-2--2-2--2-2--2-2----------------|
    B|-0-0--0-0--0-0--0-0----------------|

     BREAK: (I have no fucking clue)

     OUTRO:

    B|------------------------------|
    F|------------------------------|
    D|------------------------------|
    A|------------------------------|
    E|-3-2--2-5--3--5-3--5-2--------|
    B|-0-0--0-3--1--3-1--3-0--------|
Tap to rate this tab
 
# A B C D E F G H I J K L M N O P Q R S T U V W X Y Z