Guitaretab - guitar tabs
Song name
# A B C D E F G H I J K L M N O P Q R S T U V W X Y Z

Soulfly - The Beautiful People tab

Drop D tuning


there is a muted intro
then play this

E------------------------------------------|
B------------------------------------------|
G------------------------------------------|
D---0--3-0-------0--3-0-------0--3-0-------|
A---0--3-0-------0--3-0-------0--3-0-------|
D---0--3-0-------0--3-0-------0--3-0-------|

E-----------------------------------------------------------------|
B-----------------------------------------------------------------|
G-----------------------------------------------------------------|   (x4)
D---0--3-0------0--6--0--6--0----0--6--0--6--0--------------------|
A---0--3-0------0--6--0--6--0----0--6--0--6--0--------------------|
D---0--3-0------0--6--0--6--0----0--6--0--6--0--------------------|

Bridge

E-----------------------------------------------------------------|
B-----------------------------------------------------------------|
G-----7--7--7--7------6--6--6--6-----5--5--5--5------4--4--4--4---|
D-----------------------------------------------------------------|   (x2)
A-----5--5--5--5------4--4--4--4-----3--3--3--3------2--2--2--2---|
D-----------------------------------------------------------------|


Chorus

E-----------------------------------------------------------|
B-----------------------------------------------------------|
G-----------------------------------------------------------|
D--0--6-0-6-0-----0--6-0-6-0-----0--3-0---------------------|      (x2)
A--0--6-0-6-0-----0--6-0-6-0-----0--3-0---------------------|
D--0--6-0-6-0-----0--6-0-6-0-----0--3-0---------------------|

E--------------------------------------------------|
B--------------------------------------------------|
G--------------------------------------------------|  (x7)
D---xxxx-3p0------xxxx--3--0-----------------------|
A---xxxx-3p0--or--xxxx--3--0-----------------------|
D---xxxx-3p0------xxxx--3--0-----------------------|

E-------------------------------------------------------------|
B-------------------------------------------------------------|
G-------------------------------------------------------------|
D--0--6-0-6-0-----0--6-0-6-0-----0--3-0-----------------------|   (x4)
A--0--6-0-6-0-----0--6-0-6-0-----0--3-0-----------------------|
D--0--6-0-6-0-----0--6-0-6-0-----0--3-0-----------------------|

Brigde 2
[ Tab from: http://www.guitaretab.com/s/soulfly/171159.html ]
E----------------------------------------------------------------|
B----------------------------------------------------------------|
G-----7--7--7--7------6--6--6--6-----5--5--5--5------4--4--4--4--|  (x2)
D----------------------------------------------------------------|
A-----5--5--5--5------4--4--4--4-----3--3--3--3------2--2--2--2--|
D----------------------------------------------------------------|

E-----------------------------------------------------------|
B-----------------------------------------------------------|
G-----------------------------------------------------------|
D--0--6-0-6-0-----0--6-0-6-0-----0--3-0---------------------|  (x4)
A--0--6-0-6-0-----0--6-0-6-0-----0--3-0---------------------|
D--0--6-0-6-0-----0--6-0-6-0-----0--3-0---------------------|


E-------------------------------------------------|
B-------------------------------------------------|
G-------------------------------------------------|    (x3)
D---xxxx-3p0------xxxx--3--0----------------------|
A---xxxx-3p0--or--xxxx--3--0----------------------|
D---xxxx-3p0------xxxx--3--0----------------------|


E------------------------------------------------------------|
B------------------------------------------------------------|
G------------------------------------------------------------|
D--0--6-0-6-0-----0--6-0-6-0-----0--3-0----------------------|
A--0--6-0-6-0-----0--6-0-6-0-----0--3-0----------------------|
D--0--6-0-6-0-----0--6-0-6-0-----0--3-0----------------------|


E-----------------------------------------------|
B-----------------------------------------------|
G-----------------------------------------------|
D--0--6-0-6-0-----0--6-0-6-0-----0--3-0---------|
A--0--6-0-6-0-----0--6-0-6-0-----0--3-0---------|
D--0--6-0-6-0-----0--6-0-6-0-----0--3-0---------|

E--------------------------------------------------|
B--------------------------------------------------|
G--------------------------------------------------|    (x2)
D--0--6-0-6-0----0--6-0-6-0-6-5-3-0----------------|
A--0--6-0-6-0----0--6-0-6-0-6-5-3-0----------------|
D--0--6-0-6-0----0--6-0-6-0-6-5-3-0----------------|

Outro

E---------------------------------------------------|
B---------------------------------------------------|
G---------------------------------------------------|  (x3)
D--0--6-0-6-0----0--6-0-6-0-6-5-3-0-----------------|
A--0--6-0-6-0----0--6-0-6-0-6-5-3-0-----------------|
D--0--6-0-6-0----0--6-0-6-0-6-5-3-0-----------------|
Related for The Beautiful People tab
Advertisement will be closed in 10 seconds