Song name
# A B C D E F G H I J K L M N O P Q R S T U V W X Y Z

Soulfly - Touching The Void tab

This is the song "Touching the void" By Soulfly from the album "Conquer".

Tuning is Drop C (CGCFAD)

This is my first tab, so there will most likely be some mistakes but I don't know for
I transcribed this by ear and it sounds a lot like it. Hopefully it is because I think i
much suck at guitar, but I love playing. Its tabbed up until the Tribal drumming part 
at the end.

h = Hammer on
* = Pinch Harmonic
PM|--| = Palm Mute
/ = finger Slide


Anyway, this is Touching the Void:

Heavy Distortion Through all the song
Intro Riff:
D|---------------------------------------|  X4
A|---------------------------------------|
F|---------------------------------------|
C|---------------------------------------|
G|--------------------------------------3|
C|0---0--3h4-3---0--6h7-6---0--3h4-3--0-3|

Part 2(played 2 times):
I'm touching the Void, etc...
D|---------------------------------------|  X3
A|---------------------------------------|
F|---------------------------------------|
C|-------------------------------------3*|
G|---------------------------------------|
C|0---0--3h4-3---0--6h7-6---0--3h4-3--0--|

Also for the above part, sometimes the do and don't play the harmonic, so here it is
the harmonic:
D|---------------------------------------|  X3
A|---------------------------------------|
F|---------------------------------------|
C|--------------------------------------3|
G|--------------------------------------3|
C|0---0--3h4-3---0--6h7-6---0--3h4-3--0-3|

Anyway moving on:
  This is right after he sings:
  PM|----------------------------------------|
D|-------------------------------------------|  X4
A|-------------------------------------------|
F|-------------------------------------------|
C|---0--0--0-0-0-0-0-0-0--3*-----------------|
G|3--0--0--0-0-0-0-0-0-0---------------------|
C|3--0--0--0-0-0-0-0-0-0---------------------|

Sometimes they do it without the harmonic, so the above part, is this withOUT the harmonics:
  PM|----------------------------------------|
D|-------------------------------------------|  X4
A|-------------------------------------------|
F|-------------------------------------------|
C|---0--0--0-0-0-0-0-0-0--3------------------|
G|3--0--0--0-0-0-0-0-0-0--3------------------|
C|3--0--0--0-0-0-0-0-0-0--3------------------|

Anyway, continuing now.

This is when the whole drum roll is, so in between these notes, the drummer is playing
lil solo thing lol.
D|---------------------------------------|
A|---------------------------------------|
F|---------------------------------------|
C|---------------------------------------|
G|---------------------------------------|
C|0--0------0--0------0--0------0--0-----|

Right after:
D|---------------------------------------| X2
A|---------------------------------------|
F|---------------------------------------|
C|---------------------------------------|
G|---------------------------------------|
C|0--0--0-0-0-----------0--0--0-0-0------|

Right after tat one, after the 8th time played, Max starts singing:
D|---------------------------------------| X12
A|---------------------------------------|
F|---------------------------------------|
C|---------------------------------------|
G|---------------------------------------|
C|0--0--0-0-10-10-10-10-10-12-12-12------|

Basically back to the other riff:
D|---------------------------------------|
A|---------------------------------------|
F|---------------------------------------|
C|---------------------------------------|
G|---------------------------------------|
C|0--0--0-0-0-----------0--0--0-0-0------|

Right after:
D|------------------------------------------| X2
A|------------------------------------------|
F|------------------------------------------|
C|------------------------------------------|
G|------------------------------------------|
C|0--0--0-0-0-----------0--0--0-0-0---1/15--|

Back to the singing riff again:
D|---------------------------------------| X8
A|---------------------------------------|
F|---------------------------------------|
C|---------------------------------------|
G|---------------------------------------|
C|0--0--0-0-10-10-10-10-10-12-12-12------|

Intro to the slow part:
D|---------------------------------------|
A|---------------------------------------|
F|---------------------------------------|
C|---------------------------------------|
G|---------------------------------------|
C|0--0-----------------------------------|

Do do do do do do do do do do do do do do do do do do do do do do do do:
D|---------------------------------------|
A|---------------------------------------|
F|---------------------------------------|
C|---------------------------------------|
G|---------------------------------------|
C|0--------0-----------0-----------0-----|

Now it goes back to part 2:

D|---------------------------------------|  X2
A|---------------------------------------|
F|---------------------------------------|
C|-------------------------------------3*|
G|---------------------------------------|
C|0---0--3h4-3---0--6h7-6---0--3h4-3--0--|

or without the harmonic:
D|---------------------------------------|  X3
A|---------------------------------------|
F|---------------------------------------|
C|--------------------------------------3|
G|--------------------------------------3|
C|0---0--3h4-3---0--6h7-6---0--3h4-3--0-3|

Ending riff:
D|---------------------------------------|  X4
A|---------------------------------------|
F|---------------------------------------|
C|---0--0--0-0-0-0-0-0-0--3--------------|
G|3--0--0--0-0-0-0-0-0-0--3--------------|
C|3--0--0--0-0-0-0-0-0-0--3--------------|

D|---------------------------------------|  X4
A|---------------------------------------|
F|---------------------------------------|
C|0--------------------------------------|
G|0--------------------------------------|
C|0--------------------------------------|


And that's it. Please rate as this is my first tab... And i cant find this tab anywhere
here on this website....
Tap to rate this tab
 
# A B C D E F G H I J K L M N O P Q R S T U V W X Y Z