Song name
# A B C D E F G H I J K L M N O P Q R S T U V W X Y Z

Soulfly - Son Song tab

Soulfly - son song
Tuning - tuned down 1 and a half steps 
         Low to high = C# F# B E G# C#
Transcribed by Mark Kerry


Key 
x = mute
~ = Vibrato
/ = Slide


Intro (guitar 1) x1     then      (guitar 1&2) x1
|-------------------------------|   |-----------|
|-------------------------------|   |-----------|
|-------------------------------|   |-----------|
|-------------------------------|   |-----------|
|-------------------------------|   |-----------|
|--0-0-6-5-4-0-6-5-4-0-0-6-5-4--|   |--0-4-5-6--|
                                                                              
main riff (Guitar 1&2) Sean Lennon verse
|-----------------------------------------------|
|-----------------------------------------------|
|-----------------------------------------------|
|-----------------------------------------------|
|-----------------------------------------------|
|--0-0-6-5-4-0-6-5-4-0-0-6-5-4-0-4--------------|

fill                                                                              
(Guitar 1)       (Synth guitar)
|-------|   |------3-----/---15-~~~~~~~~--------|
|-------|   |-----------------------------------|
|-------|   |-----------------------------------|
|-------|   |-----------------------------------|
|-------|   |-----------------------------------|
|---0---|   |-----------------------------------|
                                                                              
(Guitar 1)
|-----------------------------------------------|
|-----------------------------------------------|
|-----------------------------------------------|
|-----------------------------------------------|
|------------------7-------7--------------------|
|--5-5-5-5-5-5-5-5---5-5-5---5-5-5--------------|
                                                                              
(Guitar 2) Max Cavalera verse
|-----------------------------------------------|
|--7-7-7-7-7-7-7-7-9-x-x-x-9-x-x-x--------------|
|--x-x-x-x-x-x-x-x-x-x-x-x-x-x-x-x--------------|
|--5-5-5-5-5-5-5-5-7-x-x-x-7-x-x-x--------------|
|-----------------------------------------------|
|-----------------------------------------------|
                                                                               
:: Ultimate Guitar Archive :: 
http://www.ultimate-guitar.com 



Tap to rate this tab
 
# A B C D E F G H I J K L M N O P Q R S T U V W X Y Z