Song name
# A B C D E F G H I J K L M N O P Q R S T U V W X Y Z

Soulfly - Seek N Strike tab

#----------------------------------PLEASE NOTE---------------------------------#
#This file is the author's own work and represents their interpretation of the #
#song. You may only use this file for private study, scholarship, or research. #
#------------------------------------------------------------------------------#

SEEK 'N' STRIKE
As recorded by Soulfly
(From the 2002 Album 3)

Transcribed by laurien woodgate
	

Words and Music by soulfly
Arranged by laurien woodgate

Gtr I (B Gb B E Ab Db) - 'max cavalera'
Gtr II (B Gb B E Ab Db) - 'Jackson Bandeira'

 Intro
 4/4
  Gtr I
  Wx3
|--------|
|--------|
|--------|
|--------|
|--------|
|--------|


    Q=100
    $
    Gtr I
    E E S E S S S E S E S  4x
||-------------------------||
||o-----------------------o||
||-------------------------||
||-------------------------||
||o-----------------------o||
||--1-0-1-0-0-3-3-0-1-0-0--||


   Verse
    EbD5EbD5  F5  D5EbD5
    Gtrs I, II
    E E S E S S S E S E S  8x
||-------------------------||
||o-----------------------o||
||-------------------------||
||--1-0-1-0-0-3-3-0-1-0-0--||
||o-1-0-1-0-0-3-3-0-1-0-0-o||
||--1-0-1-0-0-3-3-0-1-0-0--||


    E5      G#5     D5      F5
    Gtr I
    S S S S S S S S S S S S S S S S
||-----------------------------------||
||o---------------------------------o||
||-----------------------------------||
||--2-2-2-2-6-6-6-6-0-0-0-0-3-3-3-3--||
||o-2-2-2-2-6-6-6-6-0-0-0-0-3-3-3-3-o||
||--2-2-2-2-6-6-6-6-0-0-0-0-3-3-3-3--||


    E5      G#5     D5      F5
    Gtr I
    S S S S S S S S S S S S S S S S
||-----------------------------------||
||o---------------------------------o||
||-----------------------------------||
||--2-2-2-2-6-6-6-6-0-0-0-0-3-3-3-3--||
||o-2-2-2-2-6-6-6-6-0-0-0-0-3-3-3-3-o||
||--2-2-2-2-6-6-6-6-0-0-0-0-3-3-3-3--||
|
|   Gtr II
|   S S S S S S S S S S S S S S S S
||-----------------------------------||
||o---------------------------------o||
||--9-9-9-9-9-9-9-9-9-9-9-9-9-9-9-9--||
||-----------------------------------||
||o---------------------------------o||
||-----------------------------------||


    EbD5EbD5  F5  D5EbD5
    Gtrs I, II
    E E S E S S S E S E S  8x
||-------------------------||
||o-----------------------o||
||-------------------------||
||--1-0-1-0-0-3-3-0-1-0-0--||
||o-1-0-1-0-0-3-3-0-1-0-0-o||
||--1-0-1-0-0-3-3-0-1-0-0--||


    E5      G#5     D5      F5
    Gtr I
    S S S S S S S S S S S S S S S S
||-----------------------------------||
||o---------------------------------o||
||-----------------------------------||
||--2-2-2-2-6-6-6-6-0-0-0-0-3-3-3-3--||
||o-2-2-2-2-6-6-6-6-0-0-0-0-3-3-3-3-o||
||--2-2-2-2-6-6-6-6-0-0-0-0-3-3-3-3--||


    E5      G#5     D5      F5
    Gtr I
    S S S S S S S S S S S S S S S S
||-----------------------------------||
||o---------------------------------o||
||-----------------------------------||
||--2-2-2-2-6-6-6-6-0-0-0-0-3-3-3-3--||
||o-2-2-2-2-6-6-6-6-0-0-0-0-3-3-3-3-o||
||--2-2-2-2-6-6-6-6-0-0-0-0-3-3-3-3--||
|
|   Gtr II
|   S S S S S S S S S S S S S S S S
||-----------------------------------||
||o---------------------------------o||
||--9-9-9-9-9-9-9-9-9-9-9-9-9-9-9-9--||
||-----------------------------------||
||o---------------------------------o||
||-----------------------------------||


   Chorus
                            D.S.
    G#G5G#G5G#G5G#G5G#G5G#G5G#G5B5
    Gtrs I, II
    S S S S S S S S S S S S S S E  8x
||---------------------------------||
||o-------------------------------o||
||---------------------------------||
||--6-5-6-5-6-5-6-5-6-5-6-5-6-5S9--||
||o-6-5-6-5-6-5-6-5-6-5-6-5-6-5S9-o||
||--6-5-6-5-6-5-6-5-6-5-6-5-6-5S9--||


   Bridge
    E E E E E E E E   E E E E E E E E
||------------------|------------------||
||o-----------------|-----------------o||
||------------------|------------------||
||--x-x-x-x-x-x-x-x-|-x-x-x-x-x-x-x-x--||
||o-x-x-x-x-x-x-x-x-|-x-x-x-x-x-x-x-x-o||
||--x-x-x-x-x-x-x-x-|-x-x-x-x-x-x-x-x--||


    D5    F5E5D5      F5E5D5        F5E5D5      F5E5D5
      Gtr I
    E S S S S E E S S S S E   E S S S S E E S S S S E
||--------------------------|---------------------------||
||o-------------------------|--------------------------o||
||--------------------------|---------------------------||
||--0-0-0-3p2-0-0-0-0-3p2-0-|-0-0-0-3p2-0-0-0-0-3p2-0---||
||o-0-0-0-3p2-0-0-0-0-3p2-0-|-0-0-0-3p2-0-0-0-0-3p2-0--o||
||--0-0-0-3p2-0-0-0-0-3p2-0-|-0-0-0-3p2-0-0-0-0-3p2-0---||


  D5  F5E5D5    F5E5D5      F5E5D5    F5E5D5
  E E S S E E E S S E   E E S S E E E S S E
|---------------------|---------------------|
|---------------------|---------------------|
|---------------------|---------------------|
|-0-0-3p2-0-0-0-3p2-0-|-0-0-3p2-0-0-0-3p2-0-|
|-0-0-3p2-0-0-0-3p2-0-|-0-0-3p2-0-0-0-3p2-0-|
|-0-0-3p2-0-0-0-3p2-0-|-0-0-3p2-0-0-0-3p2-0-|


  D5    F5E5D5      F5E5D5        F5E5D5      F5E5D5
  E S S S S E E S S S S E   E S S S S E E S S S S E
|-------------------------|-------------------------|
|-------------------------|-------------------------|
|-------------------------|-------------------------|
|-0-0-0-3p2-0-0-0-0-3p2-0-|-0-0-0-3p2-0-0-0-0-3p2-0-|
|-0-0-0-3p2-0-0-0-0-3p2-0-|-0-0-0-3p2-0-0-0-0-3p2-0-|
|-0-0-0-3p2-0-0-0-0-3p2-0-|-0-0-0-3p2-0-0-0-0-3p2-0-|


 Guitar Solo
  D5     F5E5D5         F5 E5D5         F5E5D5      F5E5D5
  Gtr II
   TP            TP      TP       TP          TP
   H            +Q       Q        H           H
|------------------------------|--------------------------|
|------------------------------|--------------------------|
|-14-----------(14)-----12-----|-11-----------7-----------|
|------------------------------|--------------------------|
|------------------------------|--------------------------|
|------------------------------|--------------------------|
|
| Gtr I
|  E S S S S E   E  S S  S S E    E S S S S E E S S S S E
|------------------------------|--------------------------|
|------------------------------|--------------------------|
|------------------------------|--------------------------|
|--0-0-0-3p2-0---0--0-0--3p2-0-|--0-0-0-3p2-0-0-0-0-3p2-0-|
|--0-0-0-3p2-0---0--0-0--3p2-0-|--0-0-0-3p2-0-0-0-0-3p2-0-|
|--0-0-0-3p2-0---0--0-0--3p2-0-|--0-0-0-3p2-0-0-0-0-3p2-0-|


  D5    F5E5D5       F5 E5D5         F5E5D5      F5E5D5
  TP           TP     TP       TP
  H            Q      Q        W
|---------------------------|--------------------------|
|---------------------------|--------------------------|
|-8-----------11-----15-----|-14-----------------------|
|---------------------------|--------------------------|
|---------------------------|--------------------------|
|---------------------------|--------------------------|
|
| E S S S S E  E S S  S S E    E S S S S E E S S S S E
|---------------------------|--------------------------|
|---------------------------|--------------------------|
|---------------------------|--------------------------|
|-0-0-0-3p2-0--0-0-0--3p2-0-|--0-0-0-3p2-0-0-0-0-3p2-0-|
|-0-0-0-3p2-0--0-0-0--3p2-0-|--0-0-0-3p2-0-0-0-0-3p2-0-|
|-0-0-0-3p2-0--0-0-0--3p2-0-|--0-0-0-3p2-0-0-0-0-3p2-0-|


  D5     F5E5D5         F5 E5D5         F5 E5D5      F5  E5D5
   TP            TP      TP       TP     TP            TP
   H            +Q       Q        Q      H            +Q
|-----------------------15-----|-14-----17-----------(17)----|
|-15-----------(15)------------|-----------------------------|
|------------------------------|-----------------------------|
|------------------------------|-----------------------------|
|------------------------------|-----------------------------|
|------------------------------|-----------------------------|
|
|  E S S S S E   E  S S  S S E    E S S  S S E E S S   S S E
|------------------------------|-----------------------------|
|------------------------------|-----------------------------|
|------------------------------|-----------------------------|
|--0-0-0-3p2-0---0--0-0--3p2-0-|--0-0-0--3p2-0-0-0-0---3p2-0-|
|--0-0-0-3p2-0---0--0-0--3p2-0-|--0-0-0--3p2-0-0-0-0---3p2-0-|
|--0-0-0-3p2-0---0--0-0--3p2-0-|--0-0-0--3p2-0-0-0-0---3p2-0-|


  D5     F5E5D5       F5 E5D5           F5E5D5      F5E5D5
   TP           TP     TP
   H            Q      Q         W
|----------------------------|----------------------------|
|-15-----------16-----18-----|-[18]-----------------------|
|----------------------------|----------------------------|
|----------------------------|----------------------------|
|----------------------------|----------------------------|
|----------------------------|----------------------------|
|
|              Gtr I
|  E S S S S E  E S S  S S E     E  S S S S E E S S S S E
|----------------------------|----------------------------|
|----------------------------|----------------------------|
|----------------------------|----------------------------|
|--0-0-0-3p2-0--0-0-0--3p2-0-|---0--0-0-3p2-0-0-0-0-3p2-0-|
|--0-0-0-3p2-0--0-0-0--3p2-0-|---0--0-0-3p2-0-0-0-0-3p2-0-|
|--0-0-0-3p2-0--0-0-0--3p2-0-|---0--0-0-3p2-0-0-0-0-3p2-0-|


   Outro
    D5    F5E5D5      F5E5D5
    Gtr I
    E S S S S E E S S S S E  8x +W
||---------------------------||--------*|
||o-------------------------o||--------*|
||---------------------------||--------*|
||--0-0-0-3p2-0-0-0-0-3p2-0--||-(0)----*|
||o-0-0-0-3p2-0-0-0-0-3p2-0-o||-(0)----*|
||--0-0-0-3p2-0-0-0-0-3p2-0--||-(0)----*|



Duration Legend
---------------
W - whole; H - half; Q - quarter; E - 8th; S - 16th; T - 32nd; X - 64th; a - acciaccatura
+ - note tied to previous; . - note dotted; .. - note double dotted
Uncapitalized letters represent notes that are staccato (1/2 duration)
Irregular groupings are notated above the duration line
Duration letters will always appear directly above the note/fret number it represents the
duration for.  Duration letters with no fret number below them represent rests.  Multi-
bar rests are notated in the form Wxn, where n is the number of bars to rest for.  Low
melody durations appear below the staff

Tablature Legend
----------------
 h   - hammer-on
 p   - pull-off
 b   - bend
 pb  - pre-bend
 r   - bend release (if no number after the r, then release immediately)
 /\  - slide into or out of (from/to "nowhere")
 s   - legato slide
 S   - shift slide
 - natural harmonic
[n]  - artificial harmonic
n(n) - tapped harmonic
 ~   - vibrato
 tr  - trill
 T   - tap
 TP  - trem. picking
 PM  - palm muting
\n/  - tremolo bar dip; n = amount to dip
 \n  - tremolo bar down
 n/  - tremolo bar up
/n\  - tremolo bar inverted dip
 =   - hold bend; also acts as connecting device for hammers/pulls
 <> - volume swell (louder/softer)
 x   - on rhythm slash represents muted slash
 o   - on rhythm slash represents single note slash

Misc Legend
-----------
 |  - bar
||  - double bar
||o - repeat start
o|| - repeat end
*|  - double bar (ending)
 :  - bar (freetime)
 $  - Segno
 &  - Coda
Tempo markers -  = BPM(8/16=s8/s16), where s8 = swing 8ths, s16 = swing 16ths

Tap to rate this tab
# A B C D E F G H I J K L M N O P Q R S T U V W X Y Z